Song name
# A B C D E F G H I J K L M N O P Q R S T U V W X Y Z

The Voids - I Dont Want To tab

-------------------------------------------------------------------------------
			 I Don't Want To - The Voids
-------------------------------------------------------------------------------
Tabbed by:S K A i Aka GOAT (El MOnte 626 fo!) bLaZE iT! 420!
Email:skai_not_sky@yahoo.com


This song is pretty easy. jus repeat the riffs alot untill the song ends



Tuning:Standard

e|-----------------------------------------------------------------------|
B|-----------------------------------------------------------------------|
G|-------9--------7------------------------------------------------------|
D|-------9--------7--------7---------------------------------------------|
A|-------7--------5--------7---------------------------------------------|
E|-------------------------9---------------------------------------------|

e|----------------------------------------------------------------------|
B|----------------------------------------------------------------------|
G|----------------------------------------------------------------------|
D|-------7-----------9--------------------------------------------------|
A|-------7-----------9--------------------------------------------------|
E|-------5-----------7--------------------------------------------------|
Tap to rate this tab
 
# A B C D E F G H I J K L M N O P Q R S T U V W X Y Z