Song name
# A B C D E F G H I J K L M N O P Q R S T U V W X Y Z

The Wanted - Glad You Came tab

-------------------------------------------------------------------------------
                             Glad You Came - The Wanted
-------------------------------------------------------------------------------

Tuning:EADGBe
                    (strum once)
e|--0----7----4----2-----------|
B|--0----7----4----2-----------|
G|--1----8----4----3-----------| x2
D|--2----9----6----4-----------|
A|--2----9----6----4-----------|
E|--0--------------------------|

e|--0-0-0----------7-7-7----------4-4-4----------2-2-2----|
B|--0-0-0----------7-7-7----------4-4-4----------2-2-2----|
G|--1-1-1--11--9---8-8-8--6---4---4-4-4--6---4---3-3-3----|
D|--2-2-2----------9-9-9----------6-6-6----------4-4-4----| x2
A|--2-2-2--9---7---9-9-9--4---2---6-6-6--4---2---4-4-4----|
E|--0-0-0-------------------------------------------------|

e|--0----2----4----2-----------|
B|--0----2----4----2-----------|
G|--1----4----4----3-----------|
D|--2----4----6----4-----------| x4
A|--2----2----6----4-----------|
E|--0--------------------------|

e|--0----7----4----2-----------|
B|--0----7----4----2-----------|
G|--1----8----4----3-----------| x2
D|--2----9----6----4-----------|
A|--2----9----6----4-----------|
E|--0--------------------------|

e|--0-0-0----------7-7-7----------4-4-4----------2-2-2----|
B|--0-0-0----------7-7-7----------4-4-4----------2-2-2----|
G|--1-1-1--11--9---8-8-8--6---4---4-4-4--6---4---3-3-3----|
D|--2-2-2----------9-9-9----------6-6-6----------4-4-4----| x2
A|--2-2-2--9---7---9-9-9--4---2---6-6-6--4---2---4-4-4----|
E|--0-0-0-------------------------------------------------|

e|--0----2----4----2-----------|
B|--0----2----4----2-----------|
G|--1----4----4----3-----------|
D|--2----4----6----4-----------| x4
A|--2----2----6----4-----------|
E|--0--------------------------|

e|--0----7----4----2-----------|
B|--0----7----4----2-----------|
G|--1----8----4----3-----------| x2
D|--2----9----6----4-----------|
A|--2----9----6----4-----------|
E|--0--------------------------|

e|--0-0-0----------7-7-7----------4-4-4----------2-2-2----|
B|--0-0-0----------7-7-7----------4-4-4----------2-2-2----|
G|--1-1-1--11--9---8-8-8--6---4---4-4-4--6---4---3-3-3----|
D|--2-2-2----------9-9-9----------6-6-6----------4-4-4----| x2
A|--2-2-2--9---7---9-9-9--4---2---6-6-6--4---2---4-4-4----|
E|--0-0-0-------------------------------------------------|

                    (strum once)
e|--0----7----4----2-----------|
B|--0----7----4----2-----------|
G|--1----8----4----3-----------| x2
D|--2----9----6----4-----------|
A|--2----9----6----4-----------|
E|--0--------------------------|

************************************

| /   slide up
| \   slide down
| h   hammer-on
| p   pull-off
| ~   vibrato
| +   harmonic
| x   Mute note
| b   Bend
| pb  Pre-bend
| br  Bend release
| pbr Pre-bend release
| brb Bend release bend

************************************
Tap to rate this tab
# A B C D E F G H I J K L M N O P Q R S T U V W X Y Z