Song name
# A B C D E F G H I J K L M N O P Q R S T U V W X Y Z

The Wanted - Chasing The Sun tab

-------------------------------------------------------------------------------
                             CHASING THE SUN - The Wanted
-------------------------------------------------------------------------------
Tabbed by: Unossofrus
E-mail: unossofrus@gmail.com


e|---------------------------------------------------------------------------|
B|---------------------------------------------------------------------------|
G|---------------------------------------------------------------------------|
D|-----------------------------------------0---------------------------------|
A|---------------------------0-2---2-2-2-2---0---0-0-0-0---------------------|
E|-0---0-0-0-0-2-3---3-3-3-3-----------------------------3-2-----------------|

Repeat 6 times (first two times quietly and gradually get louder)


Chorus: 

e|---------------------------------------------------------------------------|
B|---------------------------------------------------------------------------|
G|-----------------------------------------0---------------------------------|
D|---------------------------0-2---2-2-2-2---0---0-0-0-0---------------------|
A|-0---0-0-0-0-2-3---3-3-3-3-----------------------------3-2-----------------|
E|---------------------------------------------------------------------------|

Repeat 4 times


e|---------------------------------------------------------------------------|
B|---------------------------------------------------------------------------|
G|---------------------------------------------------------------------------|
D|-----------------------------------------0---------------------------------|
A|---------------------------0-2---2-2-2-2---0---0-0-0-0---------------------|
E|-0---0-0-0-0-2-3---3-3-3-3-----------------------------3-2-----------------|

Repeat 4 times


e|---------------------------------------------------------------------------|
B|---------------------------------------------------------------------------|
G|---------------------------------------------------------------------------|
D|---------------------------------------------------------------------------|
A|-----------------------------------0-0-0-0---------------------------------|
E|-0---2-0---2-0---2-0---2-0---2-0-----------3-2-----------------------------|


Chorus: 

e|---------------------------------------------------------------------------|
B|---------------------------------------------------------------------------|
G|-----------------------------------------0---------------------------------|
D|---------------------------0-2---2-2-2-2---0---0-0-0-0---------------------|
A|-0---0-0-0-0-2-3---3-3-3-3-----------------------------3-2-----------------|
E|---------------------------------------------------------------------------|

Repeat 4 times


e|---------------------------------------------------------------------------|
B|---------------------------------------------------------------------------|
G|---------------------------------------------------------------------------|
D|-----------------------------------------0---------------------------------|
A|---------------------------0-2---2-2-2-2---0---0-0-0-0---------------------|
E|-0---0-0-0-0-2-3---3-3-3-3-----------------------------3-2-----------------|

Repeat 2 times


e|---------------------------------------------------------------------------|
B|---------------------------------------------------------------------------|
G|---------------------------------------------------------------------------|
D|---------------------------------------------------------------------------|
A|-----------------------------------0-0-0-0---------------------------------|
E|-0---2-0---2-0---2-0---2-0---2-0-----------3-2-----------------------------|


Chorus: 

e|---------------------------------------------------------------------------|
B|---------------------------------------------------------------------------|
G|-----------------------------------------0---------------------------------|
D|---------------------------0-2---2-2-2-2---0---0-0-0-0---------------------|
A|-0---0-0-0-0-2-3---3-3-3-3-----------------------------3-2-----------------|
E|---------------------------------------------------------------------------|

Repeat 4 times
end on :

A|-0--------------------|
Tap to rate this tab
# A B C D E F G H I J K L M N O P Q R S T U V W X Y Z