Song name
# A B C D E F G H I J K L M N O P Q R S T U V W X Y Z

The Wanted - Heart Vacancy tab

-------------------------------------------------------------------------------
                            Heart Vacancy - The Wanted
-------------------------------------------------------------------------------

Capo on 5  ( make a pause after each notes ) 

Verse 1 : 
e|-------------------------------------------|
B|-------------------------------------------|
G|----0------0-----2----2--------------------|
D|----0------0-----0----0--------------------|
A|----2------2-----0----0--------------------|
E|-------------------------------------------|

I hear your heart, cry for love.But you won't let me make it .

e|-------------------------------------------|
B|-------------------------------------------|
G|---0-----0----0-----0----------------------|
D|---2-----2----2-----2----------------------|
A|---2-----2----3-----3----------------------|
E|-------------------------------------------|

right you we're hurt, but I decided that you we're worth the 

e|-------------------------------------------|
B|-------------------------------------------|
G|----0------0-----2----2--------------------|
D|----0------0-----0----0--------------------|
A|----2------2-----0----0--------------------|
E|-------------------------------------------|

fight every night you lock up , you won't let me come 

e|-------------------------------------------|
B|-------------------------------------------|
G|---0-----0----0-----0----------------------|
D|---2-----2----2-----2----------------------|
A|---2-----2----3-----3----------------------|
E|-------------------------------------------|

inside but the look in your eyes , as i can turn the tide .

e|-------------------------------------------|
B|-------------------------------------------|
G|----0------0-----2----2--------------------|
D|----0------0-----0----0--------------------|
A|----2------2-----0----0--------------------|
E|-------------------------------------------|

 in your heart, in your heart, in your heart , i can tell you can fit one more


e|-------------------------------------------|
B|-------------------------------------------|
G|---0-----0----0-----0----------------------|
D|---2-----2----2-----2----------------------|
A|---2-----2----3-----3----------------------|
E|-------------------------------------------|

in your heart in your heart in your heart i don't care who was there before 


Chorus : 
e|-------------------------------------------|
B|-------------------------------------------|
G|----0------0-----2----2--------------------|
D|----0------0-----0----0--------------------|
A|----2------2-----0----0--------------------|
E|-------------------------------------------|

I hear your heart, cry for love.Then you act like theres no

e|-------------------------------------------|
B|-------------------------------------------|
G|---0-----0----0-----0----------------------|
D|---2-----2----2-----2----------------------|
A|---2-----2----3-----3----------------------|
E|-------------------------------------------|
 room , room for me or anyone ,don't disturb is all i 

e|-------------------------------------------|
B|-------------------------------------------|
G|----0------0-----2----2--------------------|
D|----0------0-----0----0--------------------|
A|----2------2-----0----0--------------------|
E|-------------------------------------------|
see , close the door , turn the key on everything that we could

e|-------------------------------------------|
B|-------------------------------------------|
G|---0-----0----0-----0----------------------|
D|---2-----2----2-----2----------------------|
A|---2-----2----3-----3----------------------|
E|-------------------------------------------|
be , if loneliness would move out ,i'd feel the vacancy 

e|-------------------------------------------|
B|-------------------------------------------|
G|----0------0-----2----2--------------------|
D|----0------0-----0----0--------------------|
A|----2------2-----0----0--------------------|
E|-------------------------------------------|
 in your heart in your heart , in your heart ( ohhh) 

e|-------------------------------------------|
B|-------------------------------------------|
G|---0-----0----0-----0----------------------|
D|---2-----2----2-----2----------------------|
A|---2-----2----3-----3----------------------|
E|-------------------------------------------|
 in your heart in your heart in your heart . 

(The rest of the song continues the same  ) 

This ain't the Heartbreak Hotel,
 even though I know it well, 
Those no shows, they sure tell,
 in the way you hold yourself, 
Don't you fret, should you get 
another cancellation,
 Give me a chance I'd make a 
permanent reservation. 

 In your heart, in your heart, in your heart, 
I can tell you can fit one more,
 Open up make a brand new start, 
I don't care who's stayed before.

 I hear your heart cry for love,
then you act like there's no room,
 Room for me, or anyone,
"Don't disturb" is all I see, 
Close the door,turn the key on
 everything that we could be,
 If loneliness would move out,
I'd fill the vacancy. 
In your heart, in your heart,in your heart, Ooh...
In your heart, in your heart, in your heart.
Tap to rate this tab
# A B C D E F G H I J K L M N O P Q R S T U V W X Y Z