Song name
# A B C D E F G H I J K L M N O P Q R S T U V W X Y Z

The Wanted - A Good Day For Love To Die tab

'A Good Day for Love to Die' - The Wanted

This was all done by ear so apologies if it's not completely 
accurate. I previously posted a tab for this song, but now that
I have the chorus chords aswell. I figured I'd update it:

Standard tuning

 Intro *this can be played through verses too*
e|-----------------------------------------------------|
b|-----------------------------------------------------|
g|-----------------------------------------------------|
d|--------8-8--6-6----9-9--8-8----8-8--6-6--8-8/6-6----|   
A|----8-8----------------------------------------------|
E|-----------------------------------------------------|

 Chorus
e|------------------------------------------------------------------------|
b|------------------------------------------------------------------------|
g|---------------------4-4-4-4-4-4-4-4--8-8-8-8-8-8-8-8--6-6-6-6-6-6-6-6--|
d|----4-4-4-4-4-4-4-4--4-4-4-4-4-4-4-4--8-8-8-8-8-8-8-8--6-6-6-6-6-6-6-6--|x4
A|----4-4-4-4-4-4-4-4--2-2-2-2-2-2-2-2--6-6-6-6-6-6-6-6--4-4-4-4-4-4-4-4--|  
E|----2-2-2-2-2-2-2-2-----------------------------------------------------|

I'm not sure on the bridge yet

 Outro
e|--------------------------------------------|
b|--------------------------------------------|
g|--------------------------------------------|
d|---------8-8-6-6--9-9-8-8--8-8-6*let ring*--|
A|----8-8-------------------------------------|
E|--------------------------------------------|

hope this helped! 
please comment and rate! :)
Tap to rate this tab
 
# A B C D E F G H I J K L M N O P Q R S T U V W X Y Z