Song name
# A B C D E F G H I J K L M N O P Q R S T U V W X Y Z

The Warlocks - Come Save Us tab

Intro(repeat throughout):
|-----------------------------------------------------------------|
|-5-5-5-5-5-5-5-5-3-3-3-3-3-3-3-3-2-2-2-2-2-2-2-2-0-0-0-0-0-0-0-0-|
|-4-4-4-4-4-4-4-4-4-4-4-4-4-4-4-4-4-4-4-4-4-4-4-4-4-4-4-4-4-4-4-4-|
|-----------------------------------------------------------------|
|-----------------------------------------------------------------|
|-----------------------------------------------------------------|

Main riff:
-------------------------------|
-------------------------------|
-------------------------------|
-------------------------------|
-7-7-7-7-7-5-7-7/9-9-9-9-9-9-9-|
-------------------------------|

Solo:
------------------------------------------------------------|
---------------------------------------------15br15---------|
/16-16-16-16-16-16-16-16-16-16-16-16-16-16p14---------------|
------------------------------------------------------------|
------------------------------------------------------------|
------------------------------------------------------------|

------------------------------------------------------------|
------------------------------------------------------------|
------------------------------------------------------------|
/14-14-14-14-14-14-14-14-14-14-14-14-14-14br-12--12b-14-14b-|
-----------------------------------------------14-----------|
------------------------------------------------------------|

------------------------------------------------------------|
------------------------------------------------------------|
---------------------------------------------14b14r12-------|
/14-14-14-14-14-14-14-14-14-14-14-14-14-14p12---------------|
------------------------------------------------------------|
------------------------------------------------------------|

------------------------------------------------------------|
------------------------------------------------------------|
------------------------------------------------------------|
/14-14-14-14-14-14-14-14-14-14-14-14-14-14br-12--12b-14-14b-|
-----------------------------------------------14-----------|
------------------------------------------------------------|

This is my first ever tab ...
Took me a while to work it out :D
Tap to rate this tab
# A B C D E F G H I J K L M N O P Q R S T U V W X Y Z