Song name
# A B C D E F G H I J K L M N O P Q R S T U V W X Y Z

The Warlocks - Stone Hearts tab

This song only involves two chords, A & D.

Guitar 1

E|--------0--------|--------2--------|
B|-----2----2------|-----3----3------|
G|-----2------2-0--|-----2------2-0--| x2
D|-----2------2-0--|--0--0------0-0--|
A|--0--------------|--0--------------|
E|-----------------|-----------------|

--------------------------------------

Guitar 1

E|--------0--------|--------2--------|
B|-----2----2------|-----3----3------|
G|-----2------2-0--|-----2------2-0--| x2
D|-----2------2-0--|--0--0------0-0--|
A|--0--------------|--0--------------|
E|-----------------|-----------------|

Guitar 2

E|-----5-----------|--10-8-10--------|
B|-----------------|-----------------|
G|--/6-------------|-----------------| x2
D|-----------------|-----------------|
A|-----------------|-----------------|
E|-----------------|-----------------|

--------------------------------------

Guitar 1

E|--------0--------|--------2--------|
B|-----2----2------|-----3----3------|
G|-----2------2-0--|-----2------2-0--|
D|-----2------2-0--|--0--0------0-0--|
A|--0--------------|--0--------------|
E|-----------------|-----------------|

Guitar 2

E|-----------------|-----------------|
B|-----------------|-----------------|
G|-----------------|-7--7-7-7-7-7-7--|
D|-7--7-7-7-7-7-7--|-7--7-7-7-7-7-7--|
A|-7--7-7-7-7-7-7--|-5--5-5-5-5-5-5--|
E|-5--5-5-5-5-5-5--|-----------------|


The rest is rather difficult to decipher :D
Tap to rate this tab
 
# A B C D E F G H I J K L M N O P Q R S T U V W X Y Z