Song name
# A B C D E F G H I J K L M N O P Q R S T U V W X Y Z

The Warlocks - Shake The Dope Out tab

This isn't the entire song but it is semi-repetitive :D

Guitar 1:

E|------------------------2-2--------|     E|----------------------|
B|--4--4-4-4-4-4-4-4-4-4--3-3-2-2-0--|     B|--4-------------------|
G|--4--4-4-4-4-4-4-4-4-4--2-2-2-2-0--| x4  G|--4-------------------|
D|--4--4-4-4-4-4-4-4-4-4--0-0-2-2-0--|     D|--4-------------------|
A|--2--2-2-2-2-2-2-2-2-2-------------|     A|--2-------------------|
E|-----------------------------------|     E|----------------------|

Let the final B chord ring.

====================================================================

Guitar 1:

E|-------------------------2---------|
B|----4----4----4----4-----3--2---0--|
G|----4----4----4----4-----2--2---0--| x4
D|----4----4----4----4-----0--2---0--|
A|----2----2----2----2---------------|
E|-----------------------------------|

Guitar 2

E|-----------------------------------|
B|-----------------------------------| x2
G|--14b16-14b16-14b16-------12----12-|
D|--------------------12h14----14----|
A|-----------------------------------|
E|-----------------------------------|

E|-----------------------------------|----------------------------------|
B|-----------------------------------|----------------------------------|
G|--14b16-16-16-16-16-16r14----12----|--14b16-16r14-12------------------|
D|---------------------------14--14--|-----------------14---------------|
A|-----------------------------------|----------------------------------|
E|-----------------------------------|----------------------------------|

The rest of the song involves the same 3 chords and the solo is roughly the same as the 
by guitar 2.
Tap to rate this tab
# A B C D E F G H I J K L M N O P Q R S T U V W X Y Z