Song name
# A B C D E F G H I J K L M N O P Q R S T U V W X Y Z

The Warlocks - Standing Between The Lovers Of Hell tab

-------------------------------------------------------------------------------
                   STANDING BETWEEN THE LOVERS OF HELL - The Warlocks
-------------------------------------------------------------------------------


Tuning: Standard

MAIN Riff
repeat throughout except in the chorus

e|---------------------------------------------------------------------|
B|-----0-0-----0-0-----0-0-----0-0-----0-0-----0-0-----0-0-----0-0-----|
G|---------------------------------------------------------------------|                      
D|--2------2-4-----4-5-----5-4-----4-2-----2-4-----4-5-----5-4-----4---|
A|---------------------------------------------------------------------|
E|---------------------------------------------------------------------|


CHORUS Riff
1:36 - 1:57 and 3:30 - 3:51


e|---------------------------------------------------------------------------|
B|----0-0-----0-0-----0-0-----0-0-----0-0-----0-0-----0-0-----0-0------------|
G|---------------------------------------------------------------------------|  x3
D|--7-----7-4-----4-5-----5-2-----2-7-----7-4-----4-5-----5-2-----2----------|
A|---------------------------------------------------------------------------|
E|---------------------------------------------------------------------------|

e|---------------------------------------------------------------------------|
B|----0-0-----0-0-----0-0-----0-0-----0-0-----0-0-----0-0---0-------0-0------|
G|---------------------------------------------------------------------------|
D|--7-----7-4-----4-5-----5-2-----2-7-----7-4-----4-5-----5---5-4-2-------0--|
A|---------------------------------------------------------------------------|
E|---------------------------------------------------------------------------|
Tap to rate this tab
# A B C D E F G H I J K L M N O P Q R S T U V W X Y Z