Song name
# A B C D E F G H I J K L M N O P Q R S T U V W X Y Z

The Warlocks - Angry Demons tab

-------------------------------------------------------------------------------
                                                   ANGRY DEMONS - The Warlocks
-------------------------------------------------------------------------------


Tuning: Standard

MAIN Riff

e|---------------------------------------------------|
B|---------------------------------------------------|
G|---------------------------------------------------|
D|---------------------------------------------------|
A|---------------------------------------------------|
E|---0--0--0--00--0000333--0--0--0--00--0000777------|

or

e|---------------------------------------------------|
B|---------------------------------------------------|
G|---------------------------------------------------|
D|---------------------------------------------------|
A|---------------------------------------------------|
E|---0--000---00--0000333--0--000---00--0000777------|




CHORUS 

"a hoomba ho..."

e|----------------------------------------------------|
B|----------------------------------------------------|
G|----9--999--99--9999-----9--999--99--9999-----------|
D|----9--999--99--9999-----9--999--99--9999-----------|
A|----7--777--77--7777-----7--777--77--7777-----------|
E|----0--000--00--0000333--0--000--00--0000777--------|





************************************
Tap to rate this tab
 
# A B C D E F G H I J K L M N O P Q R S T U V W X Y Z