Song name
# A B C D E F G H I J K L M N O P Q R S T U V W X Y Z

The Warlocks - Whips Of Mercy tab

Artist; The Warlocks
Song; Whips of Mercy
Album; Rise and Fall

Couldn't find any Warlocks tabs anywhere so thought I would do one of my own.

This is the main riff that is played through most of the song.

e|---------------------|---------------------|
B|---------------------|---------------------|
G|---------------------|---------------------|
D|-------9-------------|-------9-------------|
A|-12-12---12-10-7-10--|-12-12---12-10-7-----|
E|---------------------|-----------------10--|

e|-----------------------------------------|
B|-----------------------------------------|
G|-----------------------------------------|
D|-------9---------------------------------|
A|-12-12---12-10-7-12-15-17/14-12-14-12-14-|
E|-----------------------------------------|

While the riff is not been played just bounce around on A, G, B and D.
Tap to rate this tab
# A B C D E F G H I J K L M N O P Q R S T U V W X Y Z