Guitaretab - guitar tabs
Song name
# A B C D E F G H I J K L M N O P Q R S T U V W X Y Z

The Warriors - War Is Hell tab

This is my first tab so it might be off but just listen to the song and try and get the beat just right


*=Pick harmonic



D|---3----1----4--| x2
A|---3----1----4--|
D|---3----1----4--|
G|----------------|
B|----------------|
E|----------------|


D|---0--3--0--5--0----0--3--0--5--0--|x2----|
A|---0--3--0--5--0----0--3--0--5--0--|----3*|
D|-----------------------------------|------|
G|-----------------------------------|------|
B|-----------------------------------|------|
E|-----------------------------------|------|


D|---0--3--0--5--0----0--3--0--5--0--|x2
A|---0--3--0--5--0----0--3--0--5--0--|
D|-----------------------------------|
G|-----------------------------------|
B|-----------------------------------|
E|-----------------------------------|


D|------------------3-5-0--| |---------------3-5-0--|x2 |---0-3-5-|
A|---0--5-3-0-5*----3-5-0--| |---5-3-0-5*----3-5-0--|   |---0-3-5-|
D|-------------------------| |----------------------|   |---------|
G|-------------------------| |----------------------|   |---------|
B|-------------------------| |----------------------|   |---------|
E|-------------------------| |----------------------|   |---------|



D|---0--3--0--5--0----0--3--0--5--0--|------|
A|---0--3--0--5--0----0--3--0--5--0--|----3*|
D|-----------------------------------|------|
G|-----------------------------------|------|
B|-----------------------------------|------|
E|-----------------------------------|------|

[ Tab from: http://www.guitaretab.com/t/the-warriors/75956.html ]
D|---0--3--0--5--0----0--3--0--5--0--|x2
A|---0--3--0--5--0----0--3--0--5--0--|
D|-----------------------------------|
G|-----------------------------------|
B|-----------------------------------|
E|-----------------------------------|

D|---0---00---0--0---00---0---0---0---0---00-|x2
A|---0---00---0--0---00---0---0---0---0---00-|
D|-------------------------------------------|
G|-------------------------------------------|
B|-------------------------------------------|
E|-------------------------------------------|


D|------------------3-5-0--|x3[let the O ring last time]
A|---0--5-3-0-5*----3-5-0--|
D|-------------------------|
G|-------------------------|
B|-------------------------|
E|-------------------------|


D|-----------------------------5-3-0-|
A|---0--5-3-0-5*---5-3-0-5-3-0-------|
D|-----------------------------------|
G|-----------------------------------|
B|-----------------------------------|
E|-----------------------------------|


D|----------------------------5-3-0-|x2
A|-----5-3-0-5*---5-3-0-5-3-0-------|
D|----------------------------------|
G|----------------------------------|
B|----------------------------------|
E|----------------------------------|


D|---0---00---0--0---00---0---0---0---0---00-|x7
A|---0---00---0--0---00---0---0---0---0---00-|
D|-------------------------------------------|
G|-------------------------------------------|
B|-------------------------------------------|
E|-------------------------------------------|
Related for War Is Hell tab