Song name
# A B C D E F G H I J K L M N O P Q R S T U V W X Y Z

The Warriors - Safety Off An Introduction tab

www.myspace.com/thewarriors
www.thewarriorz.com

*=pinch harmonic

(0:16)
D|---222333------222333------222333------222333-|
A|---222333------222333------222333------222333-|
D|----------------------------------------------|
G|----------------------------------------------|
B|----------------------------------------------|
E|----------------------------------------------|


(17:19)
D|---0-0-0------|
A|---0-0-0------|
D|---------7*---|
G|--------------|
B|--------------|
E|--------------|


(20:33)
D|---222333------222333------222333------222333-|
A|---222333------222333------222333------222333-|
D|----------------------------------------------|
G|----------------------------------------------|
B|----------------------------------------------|
E|----------------------------------------------|


(34:36)
D|---0-0-0----|
A|---0-0-0----|
D|------------|
G|------------|
B|------------|
E|------------|


(37:50)
D|---222333------222333------222333------222333-----|
A|---222333------222333------222333------222333-----|
D|----------7*----------------------7*--------------|
G|--------------------------------------------------|
B|--------------------------------------------------|
E|--------------------------------------------------|


(51:57)
D|---0-0-0----------|
A|---0-0-0----------|
D|------------------|
G|------------------|
B|------------------|
E|------------------|

Yea that's it.
Tap to rate this tab
 
# A B C D E F G H I J K L M N O P Q R S T U V W X Y Z