Song name
# A B C D E F G H I J K L M N O P Q R S T U V W X Y Z

The Wave Pictures - I Love You Like A Madman tab

I couldn't find the tab to this song, so I wrote down my first tab ever.
Hopefully, you are able to read it! ;-)

It's really a great song! Enjoy!
------------------------------------------------------


e|-----------|----------------|x5
B|------8----|-------------8--|
G|------7----|-------------7--|
D|---5-------|--------x-5-----|
A|-----------|--x-5-7---------|
E|-----------|----------------|

e|--------------------------------------------------|
B|---------------7---------------7--------------8---|
G|---------------7---------------7--------------9---|
D|--------------------------------------------------|
A|--x-5-7-x-5-----------------5--------------7------|
E|-------------------x-5-7-x---------x-5-7-x--------|

e|--------------------------------------------------|
B|--------------8--------------------5--------------|
G|--------------9--------------------5--------------|
D|--------------------------------------------------|
A|-------5-x-7--------------5--x--3-----------------|
E|---x-7----------------x-7-------------------------|

e|--------------------------------------|
B|------------------5-------------------|
G|------------------5-------------------|
D|--------------------------------------|
A|------------3-------------------------|
E|---x-3-5-x-------------------x-3-5-x--|
Tap to rate this tab
# A B C D E F G H I J K L M N O P Q R S T U V W X Y Z