Song name
# A B C D E F G H I J K L M N O P Q R S T U V W X Y Z

The Wave Pictures - I Remembered chords

Highlighted       Show chord diagrams
Title: I Remembered
Artist: The Wave Pictures
Album: Instant Coffee Baby
Tabbed by: Micke | Yzermann

I couldn't find any lyrics for this song, so I tried to write them down myself.
Probably a few errors - but you'll live.


Intro
e|------------5---5h6p5------------|
B|--6--6-6--8------------8s6---6---|
G|---------------------------7-----|
D|---------------------------------|
A|---------------------------------|
E|---------------------------------|

| F C Bb F C |

Verse 1
  F
I remembered the red cross to cuts and strapes
       C
on the skin of your chins from narrow escapes
 Bb                                      F       C
with thistles and crambles and barb wire fences

Chorus
Bb
I remembered so I reach for a pen
      F
and I wrote down your name again and again
Bb                                      F
wrote down your name again and again when
             C                
I remembered reached for a pen

| F C Bb F C |

Verse 2
       F
Well I remembered your cow bell your blue triangle
        C                                     Bb
and the ruby red round earrings that dangled
                        F      C
from your ear onto your neck

Chorus
Bb
I remembered so I reach for a pen
      F
and I wrote down your name again and again
Bb                                      F
wrote down your name again and again when
             C
I remembered reached for a pen

F
So I wrote down your name again and again
Bb                                    F
wrote down your name again and again
             C
I remembered reached for a pen
Bb                   F
wrote down your name again and again

| F C Bb F C F |

Outro
e|------------------------------------------------------------|
B|--8h10-8h10-8h10-8h10--------------------------10-----------|
G|-----------------------10-9-10-12--10-9-10-12------12--10---|
D|------------------------------------------------------------|
A|------------------------------------------------------------|
E|------------------------------------------------------------|

e|--8-10-12---12---12-10-8-10-8------------8------------8-----|
B|------------------------------11---11-11---11-----11-----11-|
G|------------------------------------------------------------|
D|------------------------------------------------------------|
A|------------------------------------------------------------|
E|------------------------------------------------------------|

e|----------------------------8--8-8-8-8----------------------|
B|-------------10---------------------------------------------|
G|--10-9-10-12----12--10-9v---------------10------------------|
D|------------------------------------------------------------|
A|------------------------------------------------------------|
E|------------------------------------------------------------|
Tap to rate this tab
 
# A B C D E F G H I J K L M N O P Q R S T U V W X Y Z