Song name
# A B C D E F G H I J K L M N O P Q R S T U V W X Y Z

The Wave Pictures - Leave The Scene Behind tab

Title: Leave The Scene Behind
Artist: The Wave Pictures
Album: Instant Coffee Baby
Tabbed by: Micke | Yzermann

Chords
e|--7----7-------5----7--|
B|--8----7-------5----7--|
G|--9----9-------5----8--|
D|--9----9-------7----9--|
A|--7----7-------7----9--|
E|---------------5----7--|
    Em   Esus2   Am   B

Intro
| Em/Esus2 Am B Em/Esus2 | x2

Bass riff - verse and chorus
G|--------------------------------------------------|
D|--2-2-0-2--2-2-0----------------------0-2----0-1--|
A|-----------------2-0----2-2-0-2-0-2-0------2------|
E|--------------------------------------------------|

Bass riff - bridge
G|--------------------------------------------------|
D|---------2(8x)------------------------------------|
A|-0(x12)--------0(12x)-2(10x)-22-00----------------|
E|-----------------------------------33-22-00-------|

Verse 1
She wrote my name, in her diary and today it came
and now I know how it feels to exist behind the scenes
I know how it feels to kiss into the dream,
Of a girl who, likes to keep it fresh and new
Behind closed doors, on chequered floors
Down mahogany halls

Bridge
Am                       Em
This is what she said to me
Am                       B
This is what she said to me

Chorus
Em/Esus2               Am
If you want to be with me,
B                             Em
You've gotta leave that scene behind,
Em/Esus2              Am
And if you want to be free
B                              Em
You've gotta push your friends aside

| Em/Esus2 Am B Em/Esus2 | x2

Verse 2
In the modern school of urban fantasy
Who's best writers include, her and me
We get down on our knees and pray to thee
Leather bound black diary
She said David you'll always be a baby brother
And you'll always be a mother's son
And you'll always be somebody's favourite pupil
But you will never be the man that I want

Bridge
Am                       Em
This is what she said to me
Am                       B
This is what she said to me

Chorus
Em/Esus2               Am
If you want to be with me,
B                             Em
You've gotta leave that scene behind,
Em/Esus2              Am
And if you want to be free
B                              Em
You've gotta push your friends aside

(single strum)
Em                                         Am
You've gotta push, push, push your friends aside
B                Em
Leave that scene behind
Em                            Am
Push, push, push your friends aside
B                Em
Leave that scene behind


Solo
This is just a rough sketch of the solo.
Go nuts on the whammy bar and vibratos.

Whammy.
e|-----------|
B|--12---11--|
G|--12---11--|
D|-----------|
A|-----------|
E|-----------|

e|-------------------------------------------------------------|
B|--12-15-----------------------------15v----------------------|
G|--------12-11-------------11-12-----------12-11h12p(200x)----|
D|--------------14-12-14-14------------------------------------|
A|-------------------------------------------------------------|
E|-------------------------------------------------------------|

e|-------------------------------------------------------------|
B|---------------------------------------------12-12v-12h13p12-|
G|--12-11-----------------------------11-12-14-----------------|
D|--------14-12-14-----------14-13-14--------------------------|
A|---------------------13h14-----------------------------------|
E|-------------------------------------------------------------|

e|--------------------------------------------[19-19-19]x3-----|
B|--12-15-13-12-15s17-17-17-17--202020-19-17--[20-20-17]-------|
G|-------------------------------------------------------------|
D|-------------------------------------------------------------|
A|-------------------------------------------------------------|
E|-------------------------------------------------------------|

e|--just-strum-wherever-you-want-to-make-noise-until-the-end---|
B|--just-strum-wherever-you-want-to-make-noise-until-the-end---|
G|-------------------------------------------------------------|
D|-------------------------------------------------------------|
A|-------------------------------------------------------------|
E|-------------------------------------------------------------|
Tap to rate this tab
 
# A B C D E F G H I J K L M N O P Q R S T U V W X Y Z