Song name
# A B C D E F G H I J K L M N O P Q R S T U V W X Y Z

The Weather Machine - Stains Of Saints tab

The Weather Machines- Stains Of Saints

standard tuning

.:KEY:.
%-repeat till end of time signification
10(12)- bend from note next to () to pitch of note inside () in otherwords a whole bend

Background Powerchords
e|--------------------------------|-------------------------------|---%---|
B|--------------------------------|-------------------------------|---%---|
G|--------------------------------|-------------------------------|---%---|
D|----5-------5-5-----10------1010|----2-------2-2-----7-------7-7|---%---|
A|5-5-5-5-5-5-5-5-1010101010101010|2-2-2-2-2-2-2-2-7-7-7-7-7-7-7-7|---%---|
E|3-3-3-3-3-3-3-3-8-8-8-8-8-8-8-8-|0-0-0-0-0-0-0-0-5-5-5-5-5-5-5-5|---%---|

Chorus 1  [2:04-3:03]

e|101011001010101010777777778888777777------------------------------------|---%---|
B|------tens--------------------------88888888--------10101010101088888888|---%---|
G|--------------------------------------------99999999---tens-------------|---%---|
D|------------------------------------------------------------------------|---%---|
A|------------------------------------------------------------------------|---%---|
E|----Listen to the rythm for the number of notes, this isint exact-------|---%---|

Chorus 2

e|10101010101010101010777777----------------77777788888877777------------|---%---|
B|--------------------------1010101010101010-----------------888888------|---%---|
G|-----------------------------------------------------------------999999|---%---|
D|-----------------------------------------------------------------------|---%---|
A|-----------------------------------------------------------------------|---%---|
E|---Listen to the rythm for the number of notes, this isint exact-------|---%---|


Power chords 2 [2:33-3:03]
e|-------|--------|---------|----------|---%---|
B|-------|--------|---------|----------|---%---|
G|-------|--------|---------|----------|---%---|
D|10--55-|-77--55-|-1010--55|-5--77x-55|---%---|
A|10--55-|-77--55-|-1010--55|-5--77x-55|---%---|
E|8---33-|-55--33-|-8-8---33|-3--55x-33|---%---|


Solo
e|--------------------------------------|--------------------------------------|---|
B|----------------8-8-8-8-----10-10-8-8-|----------------8-8-8-8-----10-10-8-8-|---|
G|7-7-7-7-9-9-9-9---------9-9-----------|7-7-7-7-9-9-9-9---------9-9-----------|7--|
D|--------------------------------------|--------------------------------------|---|
A|--------------------------------------|--------------------------------------|---|
E|---------------------------------------------------------------------------------|
Listen to the rythm for the number of notes, this

------------------------------------------------|
--------------8-8-8-8-----8-8-10(12)-10-8-8-10-8|
7-7-7-9-9-9-9---------9-9-----------------------|
------------------------------------------------|
------------------------------------------------|
isint exact-------------------------------------|

End
e|---------------------------------|
B|---------------------------------|
G|---------------------------------|
D|----5-----5-----5-----5-----5-5-5|
A|5-5-5-5-5-5-5-5-5-5-5-5-5-5-5-5-5|
E|3-3-3-3-3-3-3-3-3-3-3-3-3-3-3-3-3|

Progression:
noise and fuzz [0:00-0:03]
Background Powerchords enter [0:03] goes until [3:33]
Chorus 1 [0:18-1:04]
Chorus 2 [1:04-1:18]
Chorus 1 [1:18-1:49]
Chorus 2 [1:49-2:04]
Chorus 1 [2:04-2:33]
Power chords 2/continuation of chorus 1 [2:33-3:03] chorus 2 sometimes comes in
Solo [3:03-3:33]
End [3:33-end]
Tap to rate this tab
 
# A B C D E F G H I J K L M N O P Q R S T U V W X Y Z