Song name
# A B C D E F G H I J K L M N O P Q R S T U V W X Y Z

The Wedding Present - No tab

First shot at doing one of these!

This was Tabbed from a combination of studio album Bizarro and the Deer Shed Festival 
(North Yorks 17 Jul 2010) video
on youtube. The outro is pretty much all from the Deer Shed Festival version but all the 
main elements of Bizarro version
should be in here. Should be fairly accurate but corrections welcome :)

--Intro--
e|-----------------|
B|---9-----9-----9-|
G|-----9-----9-----|
D|-9-----9-----9---|
A|-----------------|
E|-----------------|
                                       X3
e||------------------------------------||
B||---12-----10-----10---9-----9-----9-||
G||------9------9----------9-----9-----||
D||-9------9------9----9-----9-----9---||
A||------------------------------------||
E||------------------------------------||
--End Intro--

--Verse--
                  Why cant you . . .
e|------------------------------------|
B|---12-----10-----10---9-----9-----9-|
G|------9------9----------9-----9-----|
D|-9------9------9----9-----9-----9---|
A|------------------------------------|
E|------------------------------------|

 . . .at home
e|-----------------------------------------------------------------|
B|---5-----5-----5---7-----7-----7---9-----9-----9---7-----7-----7-|
G|-----6-----6---------6-----6---------6-----6---------6-----6-----|
D|-7-----7-----7---7-----7-----7---7-----7-----7---7-----7-----7---|
A|-----------------------------------------------------------------|
E|-----------------------------------------------------------------|

...really past caring how you think           I just
e|----------------------------------------------------|
B|---9-----9-----9---12-----10-----10---9-----9-----9-|
G|-----9-----9----------9------9----------9-----9-----|
D|-9-----9-----9---9------9------9----9-----9-----9---|
A|----------------------------------------------------|
E|----------------------------------------------------|

  want to know...
e|--------------------|
B|---12-----10-----10-|
G|------9------9------|
D|-9------9------9----|
A|--------------------|
E|--------------------|

 about him...
e|-----------------------------------------------------------------|
B|---5-----5-----5---7-----7-----7---9-----9-----9---7-----7-----7-|
G|-----6-----6---------6-----6---------6-----6---------6-----6-----|
D|-7-----7-----7---7-----7-----7---7-----7-----7---7-----7-----7---|
A|-----------------------------------------------------------------|
E|-----------------------------------------------------------------|

Repeat for other verse phrases e.g. And youre so right... \ Oh you can try but...
--End Verse--

--Chorus--
**Note Lead generally plays the chords high, frets 10 to 12
And if it

G          A D
Didnt mean a thing
        G        A  D
And you told him to go
                 G        A   D
And if youre as sorry as you say
      G             A   D
Why didnt you just say no
--End Chorus--


--Break--
e||---------------------------------------------|
B||---------------------------------------------|
G||-9---9-9-9-8---4--4--4---6---6-6-6-4---6-6-6-|
D||---------------------------------------------|
A||-7---7-7-7-6---2--2--2---4---4-4-4-2---4-4-4-|
E||---------------------------------------------|

e|----------------------------------------------|
B|----------------------------------------------|
G|-9---9-9-9-8---4--4--4---6---6-6-6-4---6-6-6--|
D|----------------------------------------------|
A|-7---7-7-7-6---2--2--2---4---4-4-4-2---4-4-4--|
E|----------------------------------------------|

e|----------------------------------------------|
B|----------------------------------------------|
G|-6--6-6-6-6--6-6-6-6-6--6--8-9-8--------------|
D|----------------------------------------------|
A|-4--4-4-4-4--4-4-4-4-4--4--6-7-6--------------|
E|----------------------------------------------|
                                                x2
e|----------------------------------------------||
B|----------------------------------------------||
G|-6--6-6-6-6--6-6-6-6-6--6--8-9-8--------------||
D|----------------------------------------------||
A|-4--4-4-4-4--4-4-4-4-4--4--6-7-6--------------||
E|----------------------------------------------||
--End Break--

2nd Verse \ Chorus as before

--Outro--
**Note you can hit open low E here to fill out the sound if needed.
e||---------------------------------------------------|
B||---------------------------------------------------|
G||-13--13-13-13-13--13-13--13-13-13--13--14--16--14--|
D||---------------------------------------------------|
A||-11--11-11-11-11--11-11--11-11-11--11--12--14--12--|
E||---------------------------------------------------|

e|----------------------------------------------------|
B|----------------------------------------------------|
G|-13--13-13-13-13--13-13--13-13-13--13--11--14--11---|
D|----------------------------------------------------|
A|-11--11-11-11-11--11-11--11-11-11--11--9---12--9----|
E|----------------------------------------------------|

e|----------------------------------------------------|
B|----------------------------------------------------|
G|-6--6-6-6-6--6-6--6-6-6--6--8--9--8-----------------|
D|----------------------------------------------------|
A|-4--4-4-4-4--4-4--4-4-4--4--6--7--6-----------------|
E|----------------------------------------------------|
                                                      x2
e|----------------------------------------------------||
B|----------------------------------------------------||
G|-6--6-6-6-6--6-6--6-6-6--6--8--9--8-----------------||
D|----------------------------------------------------||
A|-4--4-4-4-4--4-4--4-4-4--4--6--7--6-----------------||
E|----------------------------------------------------||

e||---------------------------------------------------|
B||---------------------------------------------------|
G||-13--13-13-13-13-13--11-11-14-14-14-13-13-13--11---|
D||---------------------------------------------------|
A||-11--11-11-11-11-11--9--9--12-12-12-11-11-13--9----|
E||---------------------------------------------------|

e|----------------------------------------------------|
B|----------------------------------------------------|
G|-13--13-13-13-13-13--14-14-18-18-18-16-16-16--9-9---|
D|----------------------------------------------------|
A|-11--11-11-11-11-11--12-12-16-16-16-14-14-14--7-7---|
E|----------------------------------------------------|

e|----------------------------------------------------|
B|----------------------------------------------------|
G|-11-11-11-11-11-11-11-11-11-11-11--8--9--8----------|
D|----------------------------------------------------|
A|-9--9--9--9--9--9--9--9--9--9--9---6--7--6----------|
E|----------------------------------------------------|

                                                      x2
e|----------------------------------------------------||
B|----------------------------------------------------||
G|-6--6-6-6-6--6-6-6-6-6-6--8--9--8-------------------||
D|----------------------------------------------------||
A|-4--4-4-4-4--4-4-4-4-4-4--6--7--6-------------------||
E|----------------------------------------------------||

                                                      X8
e||---------------------------------------------------||
B||---------------------------------------------------||
G||-9---9-9-9-8---4--4--4---6---6-6-6-4---6-6-6-------||
D||---------------------------------------------------||
A||-7---7-7-7-6---2--2--2---4---4-4-4-2---4-4-4-------||
E||---------------------------------------------------||
--End Outro--
Tap to rate this tab
# A B C D E F G H I J K L M N O P Q R S T U V W X Y Z