Song name
# A B C D E F G H I J K L M N O P Q R S T U V W X Y Z

The Wedding Present - Interstate 5 tab

 Wedding present,  Interstate 5 ext version  (end bit)  http://www.scopitones.co.uk/
-------------------------------------------------------------------------------
Tabbed by: Whitesoldier,  not perfect but my very first tab, e mail if you can improve it plz
Email: whitesoldier@hotmail.co.uk

Tuning: standard

e|-----------------------------------------------------------------------------|
B|------------------------------------------------3---3---3--5------6---6------|
G|-------------------------2--------------------2---2---2------6--7---7--------|
D|--0----------0--3--0--3-----3-------5-------2--------------------------------|
A|----0--5--7--------------------3--3----3--4----------------------------------|
E|-----------------------------------------------------------------------------|

e|-5----------3-------0-----------------------------------5--------------------|
B|---6----------1--2--------------3---3---3--5---------6----6--8--6--5---------|
G|------5--5--------------------2---2---2------6-----7-------------------------|
D|-----------------------------------------------------------------------------|
A|-----------------------------------------------------------------------------|
E|-----------------------------------------------------------------------------|

e|--------------------------------------------------------3---------------------|
B|--------6-----------------------------------------4----------4----3---4-------|
G|--7--7--------5----------------3--3--2--0--2----5----5-----5----5---5----5----|
D|-----------7-------------5--5-------------------------------------------------|
A|------------------------------------------------------------------------------|
E|------------------------------------------------------------------------------|

e|--3--4--3-----------3--3-----------------------------------------------------|
B|-----------6--4--3--------6--4--3----3--4--3----------------3-----3----5-----|
G|-----------------------------------4-----------5--3--5---------2-----2-------|
D|-----------------------------------------------------------------------------|
A|-----------------------------------------------------------------------------|
E|-----------------------------------------------------------------------------|

e|----1---1---5----------------------------------------------------------------|
B|--3---3-------6----------------6---------------------------------------------|
G|----------------5---------7--7--------5---------3--3--2--0--2----------------|
D|-----------------------------------7------5--5-------------------------------|
A|-----------------------------------------------------------------------------|
E|-----------------------------------------------------------------------------|
Tap to rate this tab
# A B C D E F G H I J K L M N O P Q R S T U V W X Y Z