Song name
# A B C D E F G H I J K L M N O P Q R S T U V W X Y Z

The Wedding - Receive tab

Artist: The Wedding
Track: Receive
Album: The Sound, The Steel

Intro
Eb-------------------|
Bb-------------------|
Gb---------555-666-7-|
Db-888-333-555-666-7-|
Ab-888-333-333-444-5-|
Db-888-333-----------| 

Come on!
r=10
Eb---------------------------------|
Bb---------------------------------|
Gb--------------555-7777-rrrr-rrrr-|
Db-88888888-333-555-7777-rrrr-rrrr-|
Ab-88888888-333-333-5555-8888-7777-|
Db-88888888-333--------------------|

Eb----------------------------------|
Bb----------------------------------|
Gb--------------555-----------------|
Db-88888888-333-555-5-55-55-55-55-5-|
Ab-88888888-333-333-5-55-55-55-55-5-|
Db-88888888-333-----5-55-55-55-55-5-|

Verse
Eb-----------------------------------------------------|
Bb-6-6-6-6-6-6-6-6-6-----------------------------------|
Gb-7-7-7-7-7-7-7-7-7-----------------------------------|
Db-7-7-7-7-7-7-7-7-7-5-5-5-5-5-5-5-5-8-8-8-8-8-8-8-8-8-|
Ab-5-5-5-5-5-5-5-5-5-5-5-5-5-5-5-5-5-8-8-8-8-8-8-8-8-8-|
Db-------------------5-5-5-5-5-5-5-5-8-8-8-8-8-8-8-8-8-| x2

Chorus
Eb---------------------------------|
Bb---------------------------------|
Gb-rrrrrrrr-----555-7777-rrrr-rrrr-|
Db-rrrrrrrr-333-555-7777-rrrr-rrrr-|
Ab-88888888-333-333-5555-8888-7777-| 
Db-88888888-333--------------------| x3

Eb----------------------------------|
Bb----------------------------------|
Gb-rrrrrrrr-----555-----------------|
Db-rrrrrrrr-333-555-5-55-55-55-55-5-|
Ab-88888888-333-333-5-55-55-55-55-5-|
Db-88888888-333-----5-55-55-55-55-5-|

Verse
Eb-----------------------------------------------------|
Bb-6-6-6-6-6-6-6-6-6-----------------------------------|
Gb-7-7-7-7-7-7-7-7-7-----------------------------------|
Db-7-7-7-7-7-7-7-7-7-5-5-5-5-5-5-5-5-8-8-8-8-8-8-8-8-8-|
Ab-5-5-5-5-5-5-5-5-5-5-5-5-5-5-5-5-5-8-8-8-8-8-8-8-8-8-|
Db-------------------5-5-5-5-5-5-5-5-8-8-8-8-8-8-8-8-8-|

Eb----------------------------------------------------------|
Bb-6-6-6-6-6-6-6-6-6----------------------------------------|
Gb-7-7-7-7-7-7-7-7-7----------------------------------------|
Db-7-7-7-7-7-7-7-7-7-5-5-5-5-5-5-5-5-8-8-8-8-101010-1111-12/|
Ab-5-5-5-5-5-5-5-5-5-5-5-5-5-5-5-5-5-8-8-8-8-101010-1111-12/|
Db-------------------5-5-5-5-5-5-5-5-8-8-8-8-101010-1111-12/|

Chorus

Bridge
Eb--------------------------|
Bb--------------------------|
Gb--------------------------|
Db-8-------3----------------|
Ab-8-------3----------------|
Db-8-0h3p0-3-12121212121212-|

Eb-------------------|
Bb-------------------|
Gb-------------------|
Db-8-------3-2222222-|
Ab-8-------3-2222222-|
Db-8-0h3p0-3-2222222-|

Then you play the chorus again and end with the first bridge riff. Most parts are here except for
some lead parts. Those are pretty easy to figure out though. Just experiment with the higher octave 
chords. 




Tap to rate this tab
# A B C D E F G H I J K L M N O P Q R S T U V W X Y Z