Guitaretab - guitar tabs
Song name
# A B C D E F G H I J K L M N O P Q R S T U V W X Y Z

The Wedding - Water Under The Bridge tab

piano

intro: guitar 1 (r= 10th fret, s= 12th fret)
e-------------------------------------------------------------------------->
B-------------------------------------------------------------------------->
G--------------------------5-54-4-----------------------------5-54-4------->
D-2/7~---7/9-9-9hr--r\5-5~-------5~--5/7~--7/9-9-9hr--s\r\9\5~------5~-5/7->
A-------------------------------------------------------------------------->
D-------------------------------------------------------------------------->

more piano

intro: guitar 1
/e----------------------------------------->\
|B----------------------------------------->|
|G----------------------------------------->|
|D----------------------------------------->|
|A-----------------------------3/r~--rrhs-->|
|D----------------------------------------->|
|                                           |
|intro: guitar 2                            |
|e----------------------------------------->|
|B----------------------------------------->|
|G-2222----2222---------------------------->|
|D-2222----2222----3333----3333------------>|
|A-0000----0000----3333----3333------------>|
\D-----------------3333----3333------------>/

verse 1: guitar 1
e-------------------------------------------------------------------------->
B-------------------------------------------------------------------------->
G-------------------------------------------------------------------------->
D-------------------------------------------------------------------------->
A-/15~----14---\r~-----rhs-r+r+r+r+r+r+r+r+r+r+r+r+r+r+r+r\3+3+3+3+3+3+3+3->
D-------------------------------------------------------------------------->
all this work means nothing without you itís elementary at best when your
voice is the one that wakes up the morning just lay my heart to

verse 1: guitar 1
e------------------->
B------------------->
G------------------->
D------------------->
A-33332/3/5\3\2/3\2->
D------------------->
rest

chorus: guitar 1 (repeat)
/e------------------------------------------------------------------------>\
|B------------------------------------------------------------------------>|
|G------------------------------------------------------------------------>|
|D------------------------------------------------------------------------>|
|A-----3/5\3\2/3\2/3\2/3\2----3/5\3\2/3\2/3\2/3\2----3/r~--\3333/r--r/s\r->|
|D------------------------------------------------------------------------>|
|     |___________________|  *same amounts of time* |_______|  |_________| |
|chorus: guitar 2            |___________________|                         |
|e------------------------------------------------------------------------>|
|B------------------------------------------------------------------------>|
|G-2222-------------------2222-------------------------------------------->|
|D-2222-------------------2222-------------------3333-------3333---------->|
|A-0000-------------------0000-------------------3333-------3333---------->|
\D-----------------------------------------------3333-------3333---------->/
itís water under the bridge you say itís gone when it passes here and you
wonít bring it up again, so I wonít bring it up again itís water under the
bridge you say itís gone when it passes here and you wonít bring it up
again, so I wonít bring it up again
[ Tab from: http://www.guitaretab.com/t/the-wedding/141534.html ]
verse 1: guitar 1
e-------------------------------------------------------------------------->
B-------------------------------------------------------------------------->
G-------------------------------------------------------------------------->
D-------------------------------------------------------------------------->
A-/15~----14---\r~-----rhs-r+r+r+r+r+r+r+r+r+r+r+r+r+r+r+r\3+3+3+3+3+3+3+3->
D-------------------------------------------------------------------------->
and all of my heroes, they have fallen but I will not be next so come
whatever may you think youíre a tough guy I canít feel

verse 1: guitar 1
e------------------->
B------------------->
G------------------->
D------------------->
A-33332/3/5\3\2/3\2->
D------------------->
heaven anymore

---REPEAT CHORUS

fill: guitar 1
e-------------------------------------------------------------------------->
B---------------------5----6---6-5-----------------------5----6---6-5------>
G---s--s--s--s-s----5---5-5-5-5-5-5----s--s--s--s-s----5---5-5-5-5-5-5----->
D-r--9---r-r9-9-9\3------3---3-----3/r--9---r-r9-9-9\3------3---3-----3---->
A-------------------------------------------------------------------------->
D-------------------------------------------------------------------------->
(conversationís useless, Iím wasting all my time youíre not the same person
I remember in my mind)

fill: guitar 1
e-------------------------------------------------------------------------->
B---------------------5----6---6-5----------------------------------------->
G---s--s--s--s-s----5---5-5-5-5-5-5----s--s--s--s-s--9999999999999ssssssss->
D-r--9---r-r9-9-9\3------3---3-----3/r--9---r-r9-9-9-rrrrrrrrrrrrrrrrrrrrr->
A-------------------------------------------------------------------------->
D-------------------------------------------------------------------------->

bridge: guitar 2 (play 3 times)                         ending 1    2    3
e-----------------------------------------------------------|-----|----|--->
B-----------------------------------------------------------|-----|----|--->
G-----------------------------------------------------------|-----|----|--->
D-000-000-----000-333-333-----333-777-777-----rrr-555-555---|-555-|-r\-|-5->
A-000-000-----000-333-333-----333-777-777-----rrr-555-555---|-555-|-r\-|-5->
D-000-000-----000-333-333-----333-777-777-----rrr-555-555---|-555-|-r\-|-5->
and conversationís useless (useless) weíre wasting all our time youíre not
the same person (person, person) I remember in my mind I told my old man
not to worry we all get there someday itís all in the journey and who you
love along the way

bridge: guitar 1 (repeat)
e-------------------------------------------------------------------->
B---------------------5~---------------------------------5~---------->
G---s---------------5------------------s---------------5------------->
D-r--9~----------\3-----------------/r--9~----------\3--------------->
A-------------------------------------------------------------------->
D-------------------------------------------------------------------->
conversationís useless, Iím wasting all my time youíre not the same person
I remember in my mind conversationís useless, Iím wasting all my time
youíre not the same person I remember in my mind

bridge: guitar 1
e-------------------------------------------------------------------------->
B-----------------------------------------------------------------5-------->
G------------------------------------------------------------------5------->
D-/r~-----------r\3~---------------3/r~------------r\3~-------------3~----->
A-------------------------------------------------------------------------->
D-------------------------------------------------------------------------->
conversationís useless, Iím wasting all my time youíre not the same person
I remember in my mind
Related for Water Under The Bridge tab