Song name
# A B C D E F G H I J K L M N O P Q R S T U V W X Y Z

The Wedding - Heartbreak In Melody tab

Artist: The Wedding
Song: Heartbreak In Melody
Tabbed By: JAKKRAB1T
Tuning: Drop C
Intro:

F|-------------------------------------|
C|-------------------------------------|
G|-----------5-----------5--5p3p0------|
C|--0--3--0-----0--3--0-----------5p3--|

F|--------------------------8-8-8-8-8-8-8-8--|
C|--------------------------x-x-x-x-x-x-x-x--|
G|-----------5-----------5--6-6-6-6-6-6-6-6--|
C|--0--3--0-----0--3--0----------------------|

F|-------------------------------------|
C|-------------------------------------|
G|-----------5------------5--5p3p0-----|
C|--0--3--0------0--3--0----------5p3--|

F|------------------------------------|
C|------------------------------------|
G|-----------5-----------5--5p3p0-----|
C|--0--3--0-----0--3--0----------3h5--|


****************************************************************************

| p  pull-off
| h  hammer-on
Tap to rate this tab
# A B C D E F G H I J K L M N O P Q R S T U V W X Y Z