Song name
# A B C D E F G H I J K L M N O P Q R S T U V W X Y Z

The Wedding - Its Time To Rock Ok tab

-------------------------------------------------------------------------------
                             IT'S TIME TO ROCK, OK? - The Wedding
-------------------------------------------------------------------------------

This is for the lead guitarist. Not for the rhythm guitar.
(The rhythm you'll just have to figure out. And on the Chorus, I didn't quite get the 
number of times you're supposed to hit all those notes).

Tabbed by: Timothy Oliver
E-mail: skatertimbomb@aol.com

Tuning: Drop C#

Intro:
D#|----------------------------------------------|
A#|----------------------------------------------|
F#|----------------------------------------------|
C#|-----------------------------------------3----|
G#|---3/5--3--0-3-0-3-5-3-----3/5--3--0-3-5---5--|
C#|-0---------------------5-0--------------------|

Verse:
D#|---------------------------------------------|
A#|---------------------------------------------|
F#|---------------------------------------------|
C#|-----------------------------------------3---|
G#|---3/5-3-0-3-0-3-5-3-----3/5-3-0-3-0-3-5---5-|
C#|-0-------------------5-0---------------------|

Chorus:
D#|---\---------------------------------------------------|
A#|-------------------------------------------------------|
F#|-----7(12x)-10(10x)-12-12-14-14-14-12-14(8x)-b14-12-10-|
C#|-0-----------------------------------------------------|
G#|-0---5(12x)-8-(10x)-10-10-12-12-12-10-12(8x)-b12-10-8--|
C#|-0-----------------------------------------------------|

D#|-------------------------|
A#|-------------------------|
F#|-------------------------|
C#|-0-3-0-3-0--0-3-0-3-0--0-|
G#|-0-3-0-3-0--0-3-0-3-0--0-|
C#|-0-3-0-3-0--0-3-0-3-0--0-|

D#|---------------------------------------------------|
A#|---------------------------------------------------|
F#|-7(12x)-10(10x)-12-12-14-14-14-12-14(8x)-b14-12-10-|
C#|---------------------------------------------------|
G#|-5(12x)-8-(10x)-10-10-12-12-12-10-12(8x)-b12-10-8--|
C#|---------------------------------------------------|




D#|-----------------------------------------------------|
A#|-----------------------------------------------------|
F#|--------------------------------------5--5-5-5-5-6-6-|
C#|-0-3-0-3-0--0-3-0-3-0--0-0-0-3-0-3-0--5--5-5-5-5-6-6-|
G#|-0-3-0-3-0--0-3-0-3-0--0-0-0-3-0-3-0--3--3-3-3-3-4-4-|
C#|-0-3-0-3-0--0-3-0-3-0--0-0-0-3-0-3-0-----------------|

Bridge:
D#|--------------------------------------------------------|
A#|--------------------------------------------------------|
F#|-------5-5-5-5-5-6-6----------------------5-5-5-5-5-6-6-|
C#|--0-0--5-5-5-5-5-6-6-0-0-3-0-3-0-0-0-3-0--5-5-5-5-5-6-6-|
G#|--0-0--3-3-3-3-3-4-4-0-0-3-0-3-0-0-0-3-0--3-3-3-3-3-4-4-|
C#|--0-0----------------0-0-3-0-3-0-0-0-3-0----------------|

D#|--------------------------------------------------------|
A#|--------------------------------------------------------|
F#|------5-5-5-5-5-6-6----------------------3-3-3-3-3------|
C#|-0-0--5-5-5-5-5-6-6-0-0-3-0-3-0-0-0-3-0--3-3-3-3-3-3-3--|
G#|-0-0--3-3-3-3-3-4-4-0-0-3-0-3-0-0-0-3-0--1-1-1-1-1-3-3--|
C#|-0-0----------------0-0-3-0-3-0-0-0-3-0------------3-3--|

Outro:
D#|\-------------------------------------------------------|
A#|\-------------------------------------------------------|
F#|--------------------------------------------------------|
C#|-------0-0-----------------------------0-0--------------|
G#|-0-0-0-----0-0-0-----------------0-0-0-----0-0-0--------|
C#|-0-0-0-----0-0-0--0-3-0-b5br-0-3-0-0-0-----0-0-0--0-3-0-|

D#|---------|
A#|---------|
F#|---------|
C#|---------|
G#|-3-2-0-3-|
C#|-------3-|



************************************

| /   slide up
| \   slide down
| h   hammer-on
| p   pull-off
| ~   vibrato
| +   harmonic
| x   Mute note
| b   Bend
| pb  Pre-bend
| br  Bend release
| pbr Pre-bend release
| brb Bend release bend

************************************
Tap to rate this tab
 
# A B C D E F G H I J K L M N O P Q R S T U V W X Y Z