Song name
# A B C D E F G H I J K L M N O P Q R S T U V W X Y Z

The Wedding - Young And Dangerous tab

-------------------------------------------------------------------------------
                            Young and Dangerous - The Wedding
-------------------------------------------------------------------------------
Tabbed by: Sikorad15


Tuning:Standard

Intro


e|-10-10-10-8-8-8-8-8-8-8-8-8-8-8-8-10-8-8-8-6-6-6-6-6-6-6-6-6-6-6-6-8---|
B|-6--6--6--6-6-6-6-6-6-6-6-6-6-6-6-6--4-4-4-4-4-4-4-4-4-4-3-3-3-3-3-4---|
G|-----------------------------------------------------------------------|
D|-----------------------------------------------------------------------|
A|-----------------------------------------------------------------------|
E|-----------------------------------------------------------------------|

Verse(s)


e|--------------------|
B|--------------------|
G|-----8-----8--------|
D|--8--8--5--8--------|
A|--8--6--5--6--------|
E|--6-----3-----------|
P.M-------------------|

Listen to the song for rhythm

Pre Chorus

e|-----------------|
B|-----------------|
G|-----8-----8--10-|
D|--8--8--5--8--10-|
A|--8--6--5--6--8--|
E|--6-----3--------|
P.M----------------|



Chorus


e|-----------------|----------------------|
B|-----------------|----------------------|
G|-----8--------8--|----------------------|
D|--8--8--5--3--8--|---8--10--5--3--------|
A|--8--6--5--3--6--|---8--10--5--3--------|
E|--6-----3--1-----|---6--8---3--1--------|
Tap to rate this tab
# A B C D E F G H I J K L M N O P Q R S T U V W X Y Z