Guitaretab - guitar tabs
Song name
# A B C D E F G H I J K L M N O P Q R S T U V W X Y Z

The Wedding - Price For Love tab

intro: guitar 1 (r= 11th fret, s= 10th fret)
eb-----6-----6--6-6h88-8----8--------6---6-----6-----6---66---->
Bb------6---6-6---------r--r-r------6-6-6-6-----6--6--6-------->
Gb-00-0--0-0---0----------s---s----0---0---0--0---0------------>
Db------------------------------------------------------------->
Ab---8~--------------8---8-----8--6----6-----6---6--5---5-6--5->
Db------------------------------------------------------------->

intro: guitar 1
eb-----6-----6h88-8------8--------6---6-----6-----6---66--->
Bb----6-6---6------r--r-r-----6-6-6-6-----6--6--6--6------->
Gb---0---0-----------s-----s-0---0---0--0---0----0--------->
Db--0-----0------------------------------------------------>
Ab--------------8---8-------8--6----6-----6---6--5---5-6--->
Db-5~------5----------------------------------------------->

verse 1: guitar 1
eb-6-66-6-666h88-88-8-888-6-6-666-666-6-6-66-666->
Bb-6-66-6-666--r-rr-r-rrr-6-6-666-666-6-6-66-666->
Gb-0-00-0-000--s-ss-s-sss-0-0-000-000-0-0-00-000-> repeat
Db----------------------------------------------->
Ab-------------8-88-8-888-6-6-666-666-5-5-56-666->
Db----------------------------------------------->
the lights go out in my corner of the world tonight and so do the lights in
your eyes yeah, so did the lights in your eyes

verse 1: guitar 1
eb-6-66-6-666h88-88-8-888-6-6-666-666-66~-->
Bb-6-66-6-666--r-rr-r-rrr-6-6-666-666-66~-->
Gb-0-00-0-000--s-ss-s-sss-0-0-000-000-00~-->
Db----------------------------------------->
Ab-------------8-88-8-888-6-6-666-666-66~-->
Db----------------------------------------->
now I donít want to preach at you, I just care too much to let you walk
away from this

chorus: guitar 2 (r= 11th fret, s= 10th fret)
eb--------------6-66666-6666-1-1111-11111-1-1111-11111->
Bb-r-rrrr-rrrrr-8-88888-8888-4-4444-44444-4-4444-44444->
Gb-s-ssss-sssss-7-77777-7777-3-3333-33333-3-3333-33333-> repeat
Db-8-8888-88888-5-55555-5555-1-1111-11111-1-1111-11111->
Ab-8-8888-88888-5-55555-5555-1-1111-11111-1-1111-11111->
Db-8-8888-88888-5-55555-5555-1-1111-11111-1-1111-11111->
and He died so never forget, forget His love yeah, He died to show us the
price you pay for love
[ Tab from: http://www.guitaretab.com/t/the-wedding/68551.html ]
verse 2: guitar 1
eb-6-66-6-666h88-88-8-888-6-6-666-666-6-6-66-666->
Bb-6-66-6-666--r-rr-r-rrr-6-6-666-666-6-6-66-666->
Gb-0-00-0-000--s-ss-s-sss-0-0-000-000-0-0-00-000-> repeat
Db----------------------------------------------->
Ab-------------8-88-8-888-6-6-666-666-5-5-56-666->
Db----------------------------------------------->
I never said that this would be easy in fact itís the hardest thing that
you will ever do

verse 2: guitar 1
eb-6-66-6-666h88-88-8-888-6-6-666-666-66~-->
Bb-6-66-6-666--r-rr-r-rrr-6-6-666-666-66~-->
Gb-0-00-0-000--s-ss-s-sss-0-0-000-000-00~-->
Db----------------------------------------->
Ab-------------8-88-8-888-6-6-666-666-66~-->
Db----------------------------------------->
but donít worry they will never capture you youíve already been set free
from this

---REPEAT CHORUS

fill: guitar 1
eb------------------>
Bb------------------>
Gb-3~----2h3/5-3~--->
Db------------------>
Ab------------------>
Db------------------>

bridge: piano
so right your wrongs and make your amends we are running out of time right
your wrongs and make your amends we are running out of time

bridge: guitar 2
eb------------------------------------------------------------------------->
Bb------------------------------------------------------------------------->
Gb-7777777777777777-333333333333333-7777777777777777-33333333333++++-++++-->
Db-7777777777777777-333333333333333-7777777777777777-33333333333++++-++++-->
Ab-5555555555555555-111111111111111-5555555555555555-11111111111++++-++++-->
Db-5555555555555555-111111111111111-5555555555555555-11111111111++++-++++-->
(time...)

bridge: guitar 2
eb--------------------------------------------------------------------->
Bb--------------------------------------------------------------------->
Gb-7777777777777777-333333333333333-7777777777777777-333333333333333~-->
Db-7777777777777777-333333333333333-7777777777777777-333333333333333~-->
Ab-5555555555555555-111111111111111-5555555555555555-111111111111111~-->
Db-5555555555555555-111111111111111-5555555555555555-111111111111111~-->
this is our song can you hear it? this is our song that we sing to you can
you hear me, can you hear me?

---REPEAT CHORUS

---REPEAT CHORUS piano only

end on: guitar 1
eb-6~------------------->
Bb-6~------------------->
Gb-7~------------------->
Db-7~------------------->
Ab-5~------------------->
Db-5~------------------->
Related for Price For Love tab