Guitaretab - guitar tabs
Song name
# A B C D E F G H I J K L M N O P Q R S T U V W X Y Z

The Wedding - One Eye Open tab

intro: guitar 1
e---------------------------------------------------------------------->
B------------------0-0-000-0-0-0------------------------0-0-000-0-0-0~->
G------------------2-2-222-2-2-2++++++------------------2-2-222-2-2-2~->
D-2-2-444-2-2-2444-2-2-444-2-2-4++++++-2-2-444-2-2-2444-2-2-444-2-2-4~->
A-2-2-222-2-2-2222-0-0-000-0-0-0++++++-2-2-222-2-2-2222-0-0-000-0-0-0~->
D-2-2-222-2-2-2222--------------++++++-2-2-222-2-2-2222---------------->

verse 1: guitar 2
/e--------------------------------------------------------------------2->\
|B-----45454\0----454545/7---45454\0----454545/7-----45454\0----45454\0->|
|G---------------------------------------------------------------------->|
|D---------------------------------------------------------------------->|
|A---------------------------------------------------------------------->|
|D---------------------------------------------------------------------->|
|                                                                        |
|verse 1: guitar 1                                                       |
|e---------------------------------------------------------------------->|
|B---------------------------------------------------------------------->|
|G------------2222------------------2222--------------------2222-------->|
|D-2222-------2222-------2222-------2222-------9\2222-------2222-------->|
|A-2222-------0000-------2222-------0000-------9\2222-------0000-------->|
\D-2222------------------2222------------------9\2222------------------->/
   ****       ****       ****       ****         ****       ****
donít fall asleep yet we havenít found a cure for what you have yet I need
you here for one more night weíll talk about the

verse 1: guitar 2
/e----------------------------------->\
|B-----45454\0----454545/7~---------->|
|G----------------------------------->|
|D----------------------------------->|
|A----------------------------------->|
|D----------------------------------->|
|                                     |
|verse 1: guitar 1                    |
|e----------------------------------->|
|B----------------------------------->|
|G------------2222------------------->|
|D-2222-------2222------------------->|
|A-2222-------0000----------------0~->|
\D-2222--------------------4~-------->/
   ****       ****       
stars and how they stay in flight or anything to keep you from sleeping
love so donít go yet

chorus: guitar 1
e--------------------------------------------------------------------->
B------------------0-0-000-0-0-0000------------------0-0-000-0-0-0000->
G-4-4-444-4-4-4444-2-2-222-2-2-2222-4-4-444-4-4-4444-2-2-222-2-2-2222->
D-2-2-444-2-2-2444-2-2-444-2-2-2444-2-2-444-2-2-2444-2-2-444-2-2-2444->
A-2-2-222-2-2-2222-0-0-000-0-0-0000-2-2-222-2-2-2222-0-0-000-0-0-0000->
D-2-2-222-2-2-2222------------------2-2-222-2-2-2222------------------>
we could fall asleep under the window sill and wake up to the morning light
as it drifts across the room donít forget better

chorus: guitar 1
e-------------------------------------------------------------------------->
B-------------------------------------------------------------------------->
G-------------------------------------------------------------------------->
D-444447~---222-222-222-222777-777-777-777222-222-222-222777-777-777-7772~->
A-444447~---222-222-222-222777-777-777-777222-222-222-222777-777-777-7772~->
D-444447~---222-222-222-222777-777-777-777222-222-222-222777-777-777-7772~->
days so wont you stay? keep one eye open keep one eye open baby
[ Tab from: http://www.guitaretab.com/t/the-wedding/68960.html ]
verse 2: guitar 2
/e--------------------------------------------------------------------2->\
|B-----45454\0----454545/7---45454\0----454545/7-----45454\0----45454\0->|
|G---------------------------------------------------------------------->|
|D---------------------------------------------------------------------->|
|A---------------------------------------------------------------------->|
|D---------------------------------------------------------------------->|
|                                                                        |
|verse 2: guitar 1                                                       |
|e---------------------------------------------------------------------->|
|B---------------------------------------------------------------------->|
|G------------2222------------------2222--------------------2222-------->|
|D-2222-------2222-------2222-------2222-------9\2222-------2222-------->|
|A-2222-------0000-------2222-------0000-------9\2222-------0000-------->|
\D-2222------------------2222------------------9\2222------------------->/
   ****       ****       ****       ****
you havenít moved in quite some time but Iíll stay right here till you wake
up and if you donít Iíll stay here till the doctors pry my hands from yours
and

verse 2: guitar 2
/e----------------------------------->\
|B-----45454\0----454545/7~---------->|
|G----------------------------------->|
|D----------------------------------->|
|A----------------------------------->|
|D----------------------------------->|
|                                     |
|verse 2: guitar 1                    |
|e----------------------------------->|
|B----------------------------------->|
|G------------2222------------------->|
|D-2222-------2222------------------->|
|A-2222-------0000----------------0~->|
\D-2222--------------------4~-------->/
drag me from the room screaming louder than the ambulances anything to keep
you from sleeping love so donít go yet

---REPEAT CHORUS

intro for bridge: guitar 2 (r= 11th fret)
e-------------------------------------------------------------->
B-------------------------------------------------------------->
G---------------------------------9-r-9---9-r-9---9-r-9--r-9--->
D--------------------------------9-----9-9-----9-9-----9----9-->
A-------------------------------------------------------------->
D-------------------------------------------------------------->
keep one eye open keep one eye open

bridge: guitar 2                      |guitar 1
e--------------------------------------4-4-4-444--------------------------->
B--------------------------------------5-5-5-555999-9-999------------------>
G--9-r-9-9-r-9-9-r-9-9-r-9-8-r-8-8-r-8-4-4-4-444999-9-999------------------>
D-9-----9-----9-----9-----9-----9------4-4-4-444777-7-777-r-r-r-r-999-9-9~->
A--------------------------------------4-4-4-444777-7-777-r-r-r-r-999-9-9~->
D--------------------------------------4-4-4-444777-7-777-r-r-r-r-999-9-9~->
cause we all fall away sometimes but itís ok, you know its ok and He will
pick us up and point us the right way and point us the right way please

bridge: guitar 2
e------------------------------>
B------------------------------>
G------------------------------>
D-4~----4/7~----7/r~----r\9~--->
A-4~----4/7~----7/r~----r\9~--->
D-4~----4/7~----7/r~----r\9~--->
stay please stay please stay

chorus: guitar 1
e--------------------------------------------------------------------->
B------------------0-0-000-0-0-0000------------------0-0-0~----------->
G-4-4-444-4-4-4444-2-2-222-2-2-2222-4-4-444-4-4-4444-2-2-2~----------->
D-2-2-444-2-2-2444-2-2-444-2-2-2444-2-2-444-2-2-2444-2-2-4~----------->
A-2-2-222-2-2-2222-0-0-000-0-0-0000-2-2-222-2-2-2222-0-0-0~----------->
D-2-2-222-2-2-2222------------------2-2-222-2-2-2222------------------>
we could fall asleep under the window sill and wake up to the morning light
as it drifts across the room donít forget better

chorus: guitar 1 (\*= scrape your pick down the strings indicated; also do
                  this in the previous chorus riff)
e------------------------------------------------------------------------>
B------------------------------------------------------------------------>
G------------------------------------------------------------------------>
D-4~----\*--2-2-2-2-2-2-2-27-7-7-7-7-7-7-72-2-2-2-2-2-2-27-7-7-7-7-7-7-7->
A-4~----\*--2-2-2-2-2-2-2-27-7-7-7-7-7-7-72-2-2-2-2-2-2-27-7-7-7-7-7-7-7->
D-4~--------2-2-2-2-2-2-2-27-7-7-7-7-7-7-72-2-2-2-2-2-2-27-7-7-7-7-7-7-7->
days so wont you stay keep one eye open keep one eye open baby so wont you

chorus: guitar 1
e-------------------------------------------------------------------------->
B-------------------------------------------------------------------------->
G-----------------------------------------------------------------------4~->
D-2-2-2-2-2-2-2-27-7-7-7-7-7-7-72-2-2-2-2-2-2-27-7-7-7-7-7-7-72~--------2~->
A-2-2-2-2-2-2-2-27-7-7-7-7-7-7-72-2-2-2-2-2-2-27-7-7-7-7-7-7-72~--------2~->
D-2-2-2-2-2-2-2-27-7-7-7-7-7-7-72-2-2-2-2-2-2-27-7-7-7-7-7-7-72~--------2~->
stay keep one eye open keep one eye open baby keep one eye open keep one
eye open baby

e------------------->
B-0~---------------->
G-2~---------------->
D-2~---------------->
A-0~---------------->
D------------------->
Related for One Eye Open tab