Song name
# A B C D E F G H I J K L M N O P Q R S T U V W X Y Z

The Wedding - Morning Air tab

Help us improve GuitareTab! Take a short survey!
so Ill kiss the morning air and fly away

verse 1: guitar 1
eb------------------------------------------------------------------------->
Bb-3333/5555555555553333/555555555555---33322332233223322------------------>
Gb-4444/7777666677774444/77776666777744444444444444444444--00---00--0-776-->
Db-----------------------------------44444444444444444444----77---77-----7->
Ab-----------------------------------22222222222222222222--555555555555555->
Db---------------------------------------------------------555555555555555->
I used to hold you close, but now your picture frames theyre the closest
you will ever be to me

verse 1: guitar 1 (r= 14th fret)
eb--------------------------------------------------------------r--r--r---->
Bb----33322332233223322---------------------3-3------0-0------------------->
Gb-44444444444444444444--00---00--0-776-----4-4------2-2------------------->
Db-44444444444444444444----77---77-----7777-4-4------2-2--777755-55-55-557->
Ab-22222222222222222222--555555555555555555-2-2------0-0------55-55-55-557->
Db-----------------------555555555555555555-------------------55-55-55-557->
and I rejoice at our dismissal like Ive finally been set free and now our
pictures drift they drift farther and farther and farther away

verse 1: guitar 1
eb-------------------------r--r--r---->
Bb------------------------------------>
Gb-4xxxxxxxx-2-xxxxxxxxx-------------->
Db-4xxxxxxxx-2-xxxxxxxxx-55-55-55-55-->
Ab-2xxxxxxxx-0-xxxxxxxxx-55-55-55-55-->
Db-----------------------55-55-55-55-->
and the pieces of our relationship become nothing more than curbside
clutter than curbside clutter

chorus: guitar 1
eb-0000000---------------------555555-0000000------------------------->
Bb-3333333---------------------888888-3333333------------------------->
Gb-2222222-7777766-------------777777-2222222-7777766----------------->
Db-0000000-7777777-2222222-4-55555555-0000000-7777777-2222222-4-5~~--->
Ab-0000000-7777777-2222222-4-55555555-0000000-7777777-2222222-4-5~~--->
Db-0000000-7777777-2222222-4-55555555-0000000-7777777-2222222-4-5~~--->
so Ill kiss the morning air and fly away fly away from here today, today,
today and Ill kiss the morning air and fly away fly away from here, today

verse 2: guitar 1
eb----------------------------------------------------->
Bb-3/555555555555---33322332233223322------------------>
Gb-4/77776666666644444444444444444444--00---00--0-776-->
Db---------------44444444444444444444----77---77-----7->
Ab---------------22222222222222222222--555555555555555->
Db-------------------------------------555555555555555->
you better take a seat, yeah, stay a while Im about to wear you out

verse 2: guitar 1
eb--------------------------------------------------------------r--r--r---->
Bb----33322332233223322---------------------3-3------0-0--------------r---->
Gb-44444444444444444444--00---00--0-776-----4-4------2-2------------------->
Db-44444444444444444444----77---77-----7~~--4-4------2-2--777755-55-55-557->
Ab-22222222222222222222--555555555555555~~--2-2------0-0------55-55-55-557->
Db-----------------------555555555555555~~--------------------55-55-55-557->
and Im not afraid to tell you what this is all about now the world around
me is slowly blending together like a wheel of colors are we so different
you and I?  are we so different you and I?

verse 1: guitar 1
eb----2----------------------------r--r--r---->
Bb-----3-2-3-22--3-0---0-------0-------------->
Gb-4xx--x-x-x--2x-x-x2x-x2h4p2x--------------->
Db-4xx--x-x-x--2x-x-x-x-x-----x--55-55-55-55-->
Ab-2xx--x-x-x--0x-x-x-x-x-----x--55-55-55-55-->
Db-------------------------------55-55-55-55-->
you loved me and I loved you not theres the door dont let it hit you on
the way out

  REPEAT CHORUS

bridge: guitar 1
eb------------------------------------------------------------------------->
Bb---------------------------------2--------------------------------------->
Gb-----------2-2--2---2--2--2--2--2--2--2--2--2--2--2--2--2--2--2--2--2--2->
Db-7xxx7~~--0-0--0---2--2--2--0--0-----2--2--2--0--0--0--2--2--2--0--0--0-->
Ab-7xxx----4----4--40--0--0--2--2-----0--0--0--4--4--4--0--0--0--2--2--2--->
Db-7xxx-------------------------------------------------------------------->
I got it all planned out Ill drive out to the edge of your yard and well
rip our tear drenched photographs apart

bridge: guitar 1
eb---------------------------------------------------------------------->
Bb-------------------------2-------------------------------------------->
Gb---2-2--2---2--2--2--2--2--2--2--2--2--2--2--2--2--2--2--2--2--2------>
Db--0-0--0---2--2--2--0--0-----2--2--2--0--0--0--2--2--2--0--0--0------->
Ab-4----4--40--0--0--2--2-----0--0--0--4--4--4--0--0--0--2--2--2--0~~--->
Db---------------------------------------------------------------------->
and watch them drift over the rooftops of this lonely southern town

chorus 2: guitar 1 (*\= scrape your pick down strings starting from around
  the farthest pickup on your guitar from you and slide down to about the
  10th fret; thats about how fast you need to slide. Youll only get the
  sound when you have your guitar plugged into an amp with distortion on.
  Its kind of hard to describe, listen to the song and maybe youll figure
  it out.)
eb-----------------------------555555-0000000---------------------------->
Bb-----------------------------888888-3333333---------------------------->
Gb-----------------------------777777-2222222-7777766-----------77777~~-->
Db-------------*\--2222222-4-55555555-0000000-7777777-2222222-4-55555~~-->
Ab-------------*\--2222222-4-55555555-0000000-7777777-2222222-4-55555~~-->
Db-----------------2222222-4-55555555-0000000-7777777-2222222-4-55555~~-->
so Ill kiss the morning air and fly away fly away from here today and Ill
kiss the morning air and fly away fly away from here, today

bridge 2: guitar 1
eb----------------------------------r---------------------------------->
Bb--------------------------------------------------------------------->
Gb-22222-------------22222------------22222-------------22222---------->
Db-00000000005555777700000000005555---00000000005555777700000000005555->
Ab-44444000005555----44444000005555---44444000005555----44444000005555->
Db------000005555---------000005555--------000005555---------000005555->
now I dont care if you cry for an entire year but by then I hope you can
make your peace

chorus: guitar 1 (slower)
eb-0000000-------------------5555++++-0000000-------------------------0~~-->
Bb-3333333-------------------8888++++-3333333-------------------------3~~-->
Gb-2222222-7777766-----------7777++++-2222222-7777766-----------------2~~-->
Db-0000000-7777777-2222222-4-5555++++-0000000-7777777-2222222-4-5~-7~-0~~-->
Ab-0000000-7777777-2222222-4-5555++++-0000000-7777777-2222222-4-5~-7~-0~~-->
Db-0000000-7777777-2222222-4-5555++++-0000000-7777777-2222222-4-5~-7~-0~~-->
so Ill kiss the morning air and fly away fly away from here today, today,
today and Ill kiss the morning air and fly away fly away from here, today
Related for Morning Air tab