Song name
# A B C D E F G H I J K L M N O P Q R S T U V W X Y Z

The Wedding - Move This City tab

Artist: The Wedding
Song: Move This City
Album: The Wedding
Tuning: Drop D Flat

This is just the intro. The rest on the other tab is accurate. 

eb|-------------------------------|
bb|-11-9--11-9--11-9--11-9--11-9--|
Gb|-10-10-10-10-10-10-10-10-10-10-|
Db|-8--8--8--8--8--8--8--8--8--8--|
Ab|-------------------------------|
Db|-------------------------------|

eb|--------------------------------------|
bb|----8-------8-------8------8------8---|
Gb|------10------10------9------9------9-|
Db|-10------10------10-----10-----10-----|
Ab|--------------------------------------|
Db|--------------------------------------|

eb|-------------------------------|
bb|-11-9--11-9--11-9--11-9--11-9--|
Gb|-10-10-10-10-10-10-10-10-10-10-|
Db|-8--8--8--8--8--8--8--8--8--8--|
Ab|-------------------------------|
Db|-------------------------------|


Tap to rate this tab
 
# A B C D E F G H I J K L M N O P Q R S T U V W X Y Z