Guitaretab - guitar tabs
Song name
# A B C D E F G H I J K L M N O P Q R S T U V W X Y Z

The Wedding - This Time Im Leaving tab

intro: guitar 1
eb----------------------------------------------->
Bb----------------------------------------------->
Gb-777777777777777777777777777777777777777777777->
Db-777777777777777777777777777777777777777777777->
Ab-555555555555555555555555555555555555555555555->
Db----------------------------------------------->
   ** * **** * **** **** * **** * **** **** * **

intro-chorus: guitar 1
eb------------------------------------------------------------------------->
Bb------------------------------------------------------------------------->
Gb-777777777777777744444444444444444442222222222222222222------------------>
Db-77777777777777774444444444444444444222222222222222222255555555555555555->
Ab-55555555555555552222222222222222222000000000000000000055555555555555555->
Db-------------------------------------------------------55555555555555555->
   ** * **** * **** **** * **** * **** **** * **** * **** **** * **** * **
and Iíll see you in the morning and the break of daylight

intro-chorus: guitar 2
eb------------------------------------------------------------------------->
Bb------------------------------------------------------------------------->
Gb-7~~--------------------------------------------------------------------->
Db-7~~--------------------------------------------------------------------->
Ab-5~~--------------------------------------------------------------------->
Db------------------------------------------------------------------------->
|                                                                          |
|intro-chorus: guitar 1                                                    |
eb------------------------------------------------------------------------->
Bb------------------------------------------------------------------------->
Gb-777777777777777744444444444444444442222222222222222222------------------>
Db-7777777777777777444444444444444444422222222222222222225555555555555555~->
Ab-5555555555555555222222222222222222200000000000000000005555555555555555~->
Db-------------------------------------------------------5555555555555555~->
   ** * **** * **** **** * **** * **** **** * **** * **** **** * **** *
but if you wake up and Iím gone Iíll see you on the other side

fill: guitar 2 (r= 11th fret)
/eb------------------------------------------------------------->\
|Bb------------------------------------------------------------->|
|Gb-777-999-rrrrrr-777-999-rrr979-777-999-rrr979~--------------->|
|Db------------------------------------------------------------->|
|Ab-555-777-999999-555-777-999757-555-777-999757~--------------->|
|Db------------------------------------------------------------->|
|                                                                |
|fill: guitar 1                                                  |
|eb------------------------------------------------------------->|
|Bb------------------------------------------------------------->|
|Gb-77777777777777-44444444444444-22222222222222---------------->|
|Db-77777777777777-44444444444444-22222222222222-555-555-55-555->|
|Ab-55555555555555-22222222222222-00000000000000-555-555-55-555->|
\Db-00000000000000-00000000000000-00000000000000-555-555-55-555->/

verse 1: guitar 1 (s= 10th fret)
eb-s--s--s--s--5--5--5--5--5--5--5--5--3--3--3--3--->
Bb--s--s--s--s--3--3--3--3--5--5--5--5--3--3--3--3-->
Gb---7--7--7--7--4--4--4--4--2--2--2--2--0--0--0--0->
Db-------------------------------------------------->
Ab-------------------------------------------------->
Db-------------------------------------------------->
late nights talking we stood by the window by ourselves remembering the
starry nights and wishing they could be ours
[ Tab from: http://www.guitaretab.com/t/the-wedding/70312.html ]
verse 1: guitar 1 (s= 10th fret)
/eb-s--s--s--s--5--5--5--5--5--5--5--5--3--3--3--3--->\
|Bb--s--s--s--s--3--3--3--3--5--5--5--5--3--3--3--3-->|
|Gb---7--7--7--7--4--4--4--4--2--2--2--2--0--0--0--0->|
|Db-------------------------------------------------->|
|Ab-------------------------------------------------->|
|Db-------------------------------------------------->|
|                                                     |
|verse 1: guitar 2                                    |
|eb-------------------------------------------------->|
|Bb-------------------------------------------------->|
|Gb-7~----------4~----------2~----------------------->|
|Db-7~----------4~----------2~----------5~----------->|
|Ab-5~----------2~----------0~----------5~----------->|
\Db-------------------------------------5~----------->/
and now we wonder what happened to those times cause Iíd give anything to
have you here tonight

chorus: guitar 2
eb------------------------------------------------------------------------->
Bb------------------------------------------------------------------------->
Gb-777777777777777744444444444444444442222222222222222222------------------>
Db-777777777777777744444444444444444442222222222222222222555-555-55-555---->
Ab-555555555555555522222222222222222220000000000000000000555-555-55-555---->
Db-000000000000000000000000000000000000000000000000000000555-555-55-555---->
and Iíll see you in the morning and the break of daylight

chorus: guitar 2
eb------------------------------------------------------------------------->
Bb------------------------------------------------------------------------->
Gb-777777777777777744444444444444444442222222222222222222------------------>
Db-777777777777777744444444444444444442222222222222222222555-555-55-555---->
Ab-555555555555555522222222222222222220000000000000000000555-555-55-555---->
Db-000000000000000000000000000000000000000000000000000000555-555-55-555---->
but if you wake up and Iím gone Iíll see you on the other side

fill: guitar 1
eb----------------------------->
Bb----------------------------->
Gb-444-444-44-444-444-444------>
Db-444-444-44-444-444-444------>
Ab-222-222-22-222-222-222------>
Db----------------------------->

bridge: guitar 2
eb------------------------------------------------------------->
Bb------------------------------------------------------------->
Gb-444-444-44-444-444-444-44-444-444-444-44-444-444-444-44-444-> repeat
Db-444-444-44-444-444-444-44-444-444-444-44-444-444-444-44-444->
Ab-222-222-22-222-222-222-22-222-222-222-22-222-222-222-22-222->
Db------------------------------------------------------------->
when youíre kids like us youíll do whatever, whatever it takes to get to
where we are now, to get to where we are now when youíre kids like us
youíll do whatever, whatever it takes to get to where we are now, to get to
where we are now

bridge: guitar 2
eb-------------------------------------------------->
Bb-------------------------------------------------->
Gb-7~----------------------------------------------->
Db-------------------------------------------------->
Ab-5~----------------------------------------------->
Db-------------------------------------------------->
never hold you back when youíre kids like us chasing our dreams and living
life for every second 

bridge: guitar 1
eb-s--s--s--s--5--5--5--5--5--5--5--5--3--3--3--3--->
Bb--s--s--s--s--3--3--3--3--5--5--5--5--3--3--3--3-->
Gb---7--7--7--7--4--4--4--4--2--2--2--2--0--0--0--0->
Db-------------------------------------------------->
Ab-------------------------------------------------->
Db-------------------------------------------------->
never hold you back when youíre kids like us chasing our dreams and living
life for every second

---REPEAT CHORUS 2x

outro: guitar 2
eb--------->
Bb--------->
Gb--------->
Db-555-555->
Ab-555-555->
Db-555-555->
   *** ***
Related for This Time Im Leaving tab