Guitaretab - guitar tabs
Song name
# A B C D E F G H I J K L M N O P Q R S T U V W X Y Z

The Wedding - Wake The Regiment tab

intro:
e----5-5--4-4-0---5-5--4----5-5--4-4-0---5-5--4-4-0---5-5--4-4-0---5-5--4~->
B-------------------------------------------------------------------------->
G-------------------------------------------------------------------------->
D-0xx---xx---x--xx---xx---00---00---0--00---00---0--00---00---0--00---00--->
A-0xx---xx---x--xx---xx---00---00---0--00---00---0--00---00---0--00---00--->
D-0xx---xx---x--xx---xx---00---00---0--00---00---0--00---00---0--00---00--->

verse 1:
e---5--4--0------5--4--0~--0--0--0--0--0--0--0--0----0----0----0----->
B------------2~-------------0--0--0--0--0--0--0--0----0----0----0---->
G----------------------------2--2--2--2--1--1--1--1-2--2-2--2-2--2-2->
D--0--0--0--0---0--0--0---2------------------------0----0----0----0-->
A-0--0--0--0---0--0--0---2------------------------------------------->
D-------------------------------------------------------------------->
its never been this cold before, now its getting to me

verse 1:
e-0----0----0----0----0----0----0----0----0----0--------------------------->
B--0----0----0----0----0----0----0----0----0----0-----3--3--2~--3--2------->
G---2-2--2-2--2-2--2-2--2-2--2-2--2-2--2-2--2-2--2-2-2--2--2---2--2--2~---->
D----0----0----0----2----4----4----4----2----2----2-0--0--0---0--0--0------>
A-------------------------------------------------------------------------->
D-------------------------------------------------------------------------->
writing my thoughts home to you not knowing if Ill ever see your face
again again

chorus:
e-444444000000000000222222------------------------------------------------->
B-------333333------555555-------------3-3-3-3-3-3------------------------->
G-666666222222222222444444-6-6-6-6-6-6-2-2-2-2-2-2-2-2-2-2-2-2------------->
D-666666000000222222222222-6-6-6-6-6-6-0-0-0-0-0-0-2-2-2-2-2-2-2-2-2-2-2-2->
A-444444000000000000222222-4-4-4-4-4-4-0-0-0-0-0-0-0-0-0-0-0-0-2-2-2-2-2-2->
D-------000000------222222-------------0-0-0-0-0-0-------------2-2-2-2-2-2->
so wake the regiment were marching on tonight this is what we live for,
this is what we live for so wake the regiment were taking back whats ours
home is what we die for, home is what we die for

fill:
e---5-5--4-4-0---5-5--4-4-0---5-5--4-4-0---5-5--4~->
B-------------------------------------------------->
G-------------------------------------------------->
D-00---00---0--00---00---0--00---00---0--00---00--->
A-00---00---0--00---00---0--00---00---0--00---00--->
D-00---00---0--00---00---0--00---00---0--00---00--->
[ Tab from: http://www.guitaretab.com/t/the-wedding/70313.html ]
verse 2:
e---5--4--0------5--4--0~--0--0--0--0--0--0--0--0----0----0----0----->
B------------2~-------------0--0--0--0--0--0--0--0----0----0----0---->
G----------------------------2--2--2--2--1--1--1--1-2--2-2--2-2--2-2->
D--0--0--0--0---0--0--0---2------------------------0----0----0----0-->
A-0--0--0--0---0--0--0---2------------------------------------------->
D-------------------------------------------------------------------->
now memories of yesteryear theyre enough to get me through just one more
time Im thinking about

verse 2:
e-0----0----0----0----0----0----0----0----0----0--------------------------->
B--0----0----0----0----0----0----0----0----0----0-----3--3--2~--3--2------->
G---2-2--2-2--2-2--2-2--2-2--2-2--2-2--2-2--2-2--2-2-2--2--2---2--2--2~---->
D----0----0----0----2----4----4----4----2----2----2-0--0--0---0--0--0------>
A-------------------------------------------------------------------------->
D-------------------------------------------------------------------------->
you and all the things that youve taught me in this life Ill remember
till I die

---REPEAT CHORUS

bridge:
e-55-544-4-------55-544-4-------------------------------------------------->
B---------55-5------------------------------------------------------------->
G-22-211-1----6~-22-211-16~--6666666666------------------------------------>
D---------22-2---------------666666666644444222220000022222444448888877777->
A-------------4~---------4~--444444444444444222220000022222444448888888888->
D--------------------------------------44444222220000022222444448888877777->
wake the regiment wake the regiment wake the regiment life is all wrong
life is all wrong life is all wake the re-gi-gi-ment

chorus 2:
e-------------------------------------------------------------------------->
B-------------------------------------------------------------------------->
G-------------------------------------------------------------------------->
D-000000000000000044444444422222222200000000022222222244444444488888877777->
A-000000000000000044444444422222222200000000022222222244444444488888888888->
D-000000000000000044444444422222222200000000022222222244444444488888877777->
so wake the regiment were marching on tonight this is what we live for,
this is what we live for so wake the regiment were taking back whats ours
home is what we die for, home is what we die for

outro:
e---5-5--4-4-0---5-5--4-4-0---5-5--4-4-0---5-5--4->
B------------------------------------------------->
G------------------------------------------------->
D-00---00---0--00---00---0--00---00---0--00---00-->
A-00---00---0--00---00---0--00---00---0--00---00-->
D-00---00---0--00---00---0--00---00---0--00---00-->
Related for Wake The Regiment tab