Guitaretab - guitar tabs
Song name
# A B C D E F G H I J K L M N O P Q R S T U V W X Y Z

The Wedding - The Wedding tab

Artist: The Wedding
Number of Tracks: 12

1. Morning Air
2. Move This City
3. This Time I'm Leaving
4. Wake the Regiment
5. One Eye Open
6. Price for Love
7. Death by Xanga
8. 479HxC (Through the Night)
9. Joyride
10.But a Breath
11.Water Under the Bridge
12.Song for the Broken
============================================================================
The Wedding ROCKS (.com)
============================================================================
NOTE: I tabbed these songs at different times.  the x's and the *'s mean the same thing: 
muting. I just wanted to clearify that. Enjoy.
===========================================================================
1. Morning Air

   Tuning: Flat and Drop D

so Iíll kiss the morning air and fly away

verse 1: guitar 1
eb------------------------------------------------------------------------->
Bb-3333/5555555555553333/555555555555---33322332233223322------------------>
Gb-4444/7777666677774444/77776666777744444444444444444444--00---00--0-776-->
Db-----------------------------------44444444444444444444----77---77-----7->
Ab-----------------------------------22222222222222222222--555555555555555->
Db---------------------------------------------------------555555555555555->
I used to hold you close, but now your picture frames theyíre the closest
you will ever be to me

verse 1: guitar 1 (r= 14th fret)
eb--------------------------------------------------------------r--r--r---->
Bb----33322332233223322---------------------3-3------0-0------------------->
Gb-44444444444444444444--00---00--0-776-----4-4------2-2------------------->
Db-44444444444444444444----77---77-----7777-4-4------2-2--777755-55-55-557->
Ab-22222222222222222222--555555555555555555-2-2------0-0------55-55-55-557->
Db-----------------------555555555555555555-------------------55-55-55-557->
and I rejoice at our dismissal like Iíve finally been set free and now our
pictures drift they drift farther and farther and farther away

verse 1: guitar 1
eb-------------------------r--r--r---->
Bb------------------------------------>
Gb-4xxxxxxxx-2-xxxxxxxxx-------------->
Db-4xxxxxxxx-2-xxxxxxxxx-55-55-55-55-->
Ab-2xxxxxxxx-0-xxxxxxxxx-55-55-55-55-->
Db-----------------------55-55-55-55-->
and the pieces of our relationship become nothing more than curbside
clutter than curbside clutter

chorus: guitar 1
eb-0000000---------------------555555-0000000------------------------->
Bb-3333333---------------------888888-3333333------------------------->
Gb-2222222-7777766-------------777777-2222222-7777766----------------->
Db-0000000-7777777-2222222-4-55555555-0000000-7777777-2222222-4-5~~--->
Ab-0000000-7777777-2222222-4-55555555-0000000-7777777-2222222-4-5~~--->
Db-0000000-7777777-2222222-4-55555555-0000000-7777777-2222222-4-5~~--->
so Iíll kiss the morning air and fly away fly away from here today, today,
today and Iíll kiss the morning air and fly away fly away from here, today

verse 2: guitar 1
eb----------------------------------------------------->
Bb-3/555555555555---33322332233223322------------------>
Gb-4/77776666666644444444444444444444--00---00--0-776-->
Db---------------44444444444444444444----77---77-----7->
Ab---------------22222222222222222222--555555555555555->
Db-------------------------------------555555555555555->
you better take a seat, yeah, stay a while Iím about to wear you out

verse 2: guitar 1
eb--------------------------------------------------------------r--r--r---->
Bb----33322332233223322---------------------3-3------0-0--------------r---->
Gb-44444444444444444444--00---00--0-776-----4-4------2-2------------------->
Db-44444444444444444444----77---77-----7~~--4-4------2-2--777755-55-55-557->
Ab-22222222222222222222--555555555555555~~--2-2------0-0------55-55-55-557->
Db-----------------------555555555555555~~--------------------55-55-55-557->
and Iím not afraid to tell you what this is all about now the world around
me is slowly blending together like a wheel of colors are we so different
you and I?  are we so different you and I?

verse 1: guitar 1
eb----2----------------------------r--r--r---->
Bb-----3-2-3-22--3-0---0-------0-------------->
Gb-4xx--x-x-x--2x-x-x2x-x2h4p2x--------------->
Db-4xx--x-x-x--2x-x-x-x-x-----x--55-55-55-55-->
Ab-2xx--x-x-x--0x-x-x-x-x-----x--55-55-55-55-->
Db-------------------------------55-55-55-55-->
you loved me and I loved you not thereís the door donít let it hit you on
the way out

  REPEAT CHORUS

bridge: guitar 1
eb------------------------------------------------------------------------->
Bb---------------------------------2--------------------------------------->
Gb-----------2-2--2---2--2--2--2--2--2--2--2--2--2--2--2--2--2--2--2--2--2->
Db-7xxx7~~--0-0--0---2--2--2--0--0-----2--2--2--0--0--0--2--2--2--0--0--0-->
Ab-7xxx----4----4--40--0--0--2--2-----0--0--0--4--4--4--0--0--0--2--2--2--->
Db-7xxx-------------------------------------------------------------------->
I got it all planned out Iíll drive out to the edge of your yard and weíll
rip our tear drenched photographs apart

bridge: guitar 1
eb---------------------------------------------------------------------->
Bb-------------------------2-------------------------------------------->
Gb---2-2--2---2--2--2--2--2--2--2--2--2--2--2--2--2--2--2--2--2--2------>
Db--0-0--0---2--2--2--0--0-----2--2--2--0--0--0--2--2--2--0--0--0------->
Ab-4----4--40--0--0--2--2-----0--0--0--4--4--4--0--0--0--2--2--2--0~~--->
Db---------------------------------------------------------------------->
and watch them drift over the rooftops of this lonely southern town

chorus 2: guitar 1 (*\= scrape your pick between the Db and Ab strings
  starting from around the farthest pickup on your guitar from you and slide
  down to about the 10th fret; thatís about how fast you need to slide.
  Youíll only get the sound when you have your guitar plugged into an amp
  with distortion on. Itís kind of hard to describe, listen to the song and
  maybe youíll figure it out.)
eb-----------------------------555555-0000000---------------------------->
Bb-----------------------------888888-3333333---------------------------->
Gb-----------------------------777777-2222222-7777766-----------77777~~-->
Db-------------*\--2222222-4-55555555-0000000-7777777-2222222-4-55555~~-->
Ab-------------*\--2222222-4-55555555-0000000-7777777-2222222-4-55555~~-->
Db-----------------2222222-4-55555555-0000000-7777777-2222222-4-55555~~-->
so Iíll kiss the morning air and fly away fly away from here today and Iíll
kiss the morning air and fly away fly away from here, today

bridge 2: guitar 1
eb----------------------------------r---------------------------------->
Bb--------------------------------------------------------------------->
Gb-22222-------------22222------------22222-------------22222---------->
Db-00000000005555777700000000005555---00000000005555777700000000005555->
Ab-44444000005555----44444000005555---44444000005555----44444000005555->
Db------000005555---------000005555--------000005555---------000005555->
now I donít care if you cry for an entire year but by then I hope you can
make your peace

chorus: guitar 1 (slower)
eb-0000000-------------------5555++++-0000000-------------------------0~~-->
Bb-3333333-------------------8888++++-3333333-------------------------3~~-->
Gb-2222222-7777766-----------7777++++-2222222-7777766-----------------2~~-->
Db-0000000-7777777-2222222-4-5555++++-0000000-7777777-2222222-4-5~-7~-0~~-->
Ab-0000000-7777777-2222222-4-5555++++-0000000-7777777-2222222-4-5~-7~-0~~-->
Db-0000000-7777777-2222222-4-5555++++-0000000-7777777-2222222-4-5~-7~-0~~-->
so Iíll kiss the morning air and fly away fly away from here today, today,
today and Iíll kiss the morning air and fly away fly away from here, today
============================================================================
2. Move This City

   Tuning: Flat and Drop D

intro:
eb------------------------------------------------------------------------->
Bb----------------------------8-88~---------------------------------------->
Gb-1412-1412-14121412-1412--10----10-9~-1412-1412-14121412-14123-3-3-33-33->
Db-0-0--0-0--0-0-0-0--0-0-10~-----------0-0--0-0--0-0-0-0--0-0-3-3-3-33-33->
Ab-------------------------------------------------------------1-1-1-11-11->
Db------------------------------------------------------------------------->

verse 1:
eb------------------------------------------------------------------------->
Bb----------------------------888~--------------------------------888~----->
Gb-1412-1412-14121412-1412--10---10-9~-1412-1412-14121412-1412--10---10-9~->
Db-0-0--0-0--0-0-0-0--0-0-10~----------0-0--0-0--0-0-0-0--0-0-10~---------->
Ab------------------------------------------------------------------------->
Db------------------------------------------------------------------------->
and false accusations destroy relationships I hope youíre happy with all
the lies youíve spread with all the lies youíve spread

verse 1:
eb----------------------------------------------------------------->
Bb----------------------------------------------------------------->
Gb-7xx-7xx-7xxxx-7xx-7x-----888~-----1412-1412-14121412-14123~~---->
Db-7xx-7xx-7xxxx-7xx-7x---10---10-9~-0-0--0-0--0-0-0-0--0-0-3~~---->
Ab-5xx-5xx-5xxxx-5xx-5x-10~---------------------------------1~~---->
Db----------------------------------------------------------------->
well I say we change things up, trade out this hate with love bit has got
to start with us

chorus: (r= 10th fret)
eb-33333333/----------------------------------------->
Bb-66666666/rrrrrrrrr/------------------------------->
Gb-55555555/999999999/r-r-rr-r-r-rrr-r-r-rr-r-r-rrr--> repeat
Db-33333333/777777777/8-8-88-8-8-888-8-8-88-8-8-888-->
Ab-33333333/888888888-8-8-88-8-8-888-8-8-88-8-8-888-->
Db-33333333/777777777/8-8-88-8-8-888-8-8-88-8-8-888-->
letís be the ones to move this city if youíre with me then say, whoa, yeah
and if we fail, weíll just keep trying till we make it whoa, yeah

fill:
eb---------------------------->
Bb---------------------------->
Gb---------------------------->
Db-1412-1412-14121412-1412\3-->
Ab-0-0--0-0--0-0-0-0--0-0-\3-->
Db------------------------\3-->

verse 2:
eb------------------------------------------------------------------------->
Bb------------------------------------------------------------------------->
Gb---------2xxxxx2bbb333333333-----------------0022332233333333-0-2-0-2-0-->
Db-33333333----------333333333-00000000333333330000000033333333-3---3---3-->
Ab-33333333----------111111111-00000000333333330000000011111111-3---3---3-->
Db-33333333--------------------000000003333333300000000---------3---3---3-->
my strength is not determined by never messing up but that every time that I fall down 
one more time that I will get back up Iíll get back up so

---REPEAT CHORUS

bridge:
eb-----------------------r--5--5--5--5--------------5--5--5--5------------->
Bb-665-665-665-665----------3--3--3--3--r--r--r--r--3--3--3--3--r--r--r--r->
Gb-555-555-555-555----------------------r--r--r--r--------------r--r--r--r->
Db-----------------0xxxxx-00-00-00-00-88-88-88-88-00-00-00-00-88-88-88-88-->
Ab-----------------0xxxxx-00-00-00-00-88-88-88-88-00-00-00-00-88-88-88-88-->
Db-----------------0xxxxx-00-00-00-00-88-88-88-88-00-00-00-00-88-88-88-88-->
so choose youíre battles wisely get in line look around family

bridge:
eb---5--5--5--5---------------------------------------->
Bb---3--3--3--3--r--r--r--r---------------------------->
Gb---------------r--r--r--r---------------------------->
Db-00-00-00-00-88-88-88-88-00---xx88---xx00---xx88---\->
Ab-00-00-00-00-88-88-88-88-00---xx88---xx00---xx88---\->
Db-00-00-00-00-88-88-88-88-00---xx88---xx00---xx88---\->
is what youíll find so choose youíre battles wisely get in line look around
family is what youíll find

---REPEAT CHORUS

outro:
eb------------------------------------------>
Bb------------------------------------------>
Gb-141412-14-1412-141412-14-1412------------>
Db-0-0-0--0--0-0--0-0-0--0--0-0--0x~~------->
Ab-------------------------------0x~~------->
Db-------------------------------0x~~------->
============================================================================
3. This Time I'm Leaving

   Tuning: Flat and Drop D

intro: guitar 1
eb----------------------------------------------->
Bb----------------------------------------------->
Gb-777777777777777777777777777777777777777777777->
Db-777777777777777777777777777777777777777777777->
Ab-555555555555555555555555555555555555555555555->
Db----------------------------------------------->
   ** * **** * **** **** * **** * **** **** * **

intro-chorus: guitar 1
eb------------------------------------------------------------------------->
Bb------------------------------------------------------------------------->
Gb-777777777777777744444444444444444442222222222222222222------------------>
Db-77777777777777774444444444444444444222222222222222222255555555555555555->
Ab-55555555555555552222222222222222222000000000000000000055555555555555555->
Db-------------------------------------------------------55555555555555555->
   ** * **** * **** **** * **** * **** **** * **** * **** **** * **** * **
and Iíll see you in the morning and the break of daylight

intro-chorus: guitar 2
eb------------------------------------------------------------------------->
Bb------------------------------------------------------------------------->
Gb-7~~--------------------------------------------------------------------->
Db-7~~--------------------------------------------------------------------->
Ab-5~~--------------------------------------------------------------------->
Db------------------------------------------------------------------------->
|                                                                          |
|intro-chorus: guitar 1                                                    |
eb------------------------------------------------------------------------->
Bb------------------------------------------------------------------------->
Gb-777777777777777744444444444444444442222222222222222222------------------>
Db-7777777777777777444444444444444444422222222222222222225555555555555555~->
Ab-5555555555555555222222222222222222200000000000000000005555555555555555~->
Db-------------------------------------------------------5555555555555555~->
   ** * **** * **** **** * **** * **** **** * **** * **** **** * **** *
but if you wake up and Iím gone Iíll see you on the other side

fill: guitar 2 (r= 11th fret)
/eb--------------------------------------------------------------->|\
|Bb--------------------------------------------------------------->|
|Gb-777-999-rrrrrr-777-999-rrr979-777-999-rrr979~----------------->|
|Db--------------------------------------------------------------->|
|Ab-555-777-999999-555-777-999757-555-777-999757~----------------->|
|Db--------------------------------------------------------------->|
|                                                                |
|fill: guitar 1                                                  |
|eb--------------------------------------------------------------->|
|Bb--------------------------------------------------------------->|
|Gb-77777777777777-44444444444444-22222222222222------------------>|
|Db-77777777777777-44444444444444-22222222222222-555-555-55-555--->|
|Ab-55555555555555-22222222222222-00000000000000-555-555-55-555--->|
\Db-00000000000000-00000000000000-00000000000000-555-555-55-555--->|/

verse 1: guitar 1 (s= 10th fret)
eb-s--s--s--s--5--5--5--5--5--5--5--5--3--3--3--3--->
Bb--s--s--s--s--3--3--3--3--5--5--5--5--3--3--3--3-->
Gb---7--7--7--7--4--4--4--4--2--2--2--2--0--0--0--0->
Db-------------------------------------------------->
Ab-------------------------------------------------->
Db-------------------------------------------------->
late nights talking we stood by the window by ourselves remembering the
starry nights and wishing they could be ours

verse 1: guitar 1 (s= 10th fret)
/eb-s--s--s--s--5--5--5--5--5--5--5--5--3--3--3--3----->|\
|Bb--s--s--s--s--3--3--3--3--5--5--5--5--3--3--3--3---->|
|Gb---7--7--7--7--4--4--4--4--2--2--2--2--0--0--0--0--->|
|Db---------------------------------------------------->|
|Ab---------------------------------------------------->|
|Db---------------------------------------------------->|
|                                                     |
|verse 1: guitar 2                                    |
|eb---------------------------------------------------->|
|Bb---------------------------------------------------->|
|Gb-7~----------4~----------2~------------------------->|
|Db-7~----------4~----------2~----------5~------------->|
|Ab-5~----------2~----------0~----------5~------------->|
\Db-------------------------------------5~------------->|/
and now we wonder what happened to those times cause Iíd give anything to
have you here tonight

chorus: guitar 2
eb------------------------------------------------------------------------->
Bb------------------------------------------------------------------------->
Gb-777777777777777744444444444444444442222222222222222222------------------>
Db-777777777777777744444444444444444442222222222222222222555-555-55-555---->
Ab-555555555555555522222222222222222220000000000000000000555-555-55-555---->
Db-000000000000000000000000000000000000000000000000000000555-555-55-555---->
and Iíll see you in the morning and the break of daylight

chorus: guitar 2
eb------------------------------------------------------------------------->
Bb------------------------------------------------------------------------->
Gb-777777777777777744444444444444444442222222222222222222------------------>
Db-777777777777777744444444444444444442222222222222222222555-555-55-555---->
Ab-555555555555555522222222222222222220000000000000000000555-555-55-555---->
Db-000000000000000000000000000000000000000000000000000000555-555-55-555---->
but if you wake up and Iím gone Iíll see you on the other side

fill: guitar 1
eb----------------------------->
Bb----------------------------->
Gb-444-444-44-444-444-444------>
Db-444-444-44-444-444-444------>
Ab-222-222-22-222-222-222------>
Db----------------------------->

bridge: guitar 2
eb------------------------------------------------------------->
Bb------------------------------------------------------------->
Gb-444-444-44-444-444-444-44-444-444-444-44-444-444-444-44-444-> repeat
Db-444-444-44-444-444-444-44-444-444-444-44-444-444-444-44-444->
Ab-222-222-22-222-222-222-22-222-222-222-22-222-222-222-22-222->
Db------------------------------------------------------------->
when youíre kids like us youíll do whatever, whatever it takes to get to
where we are now, to get to where we are now when youíre kids like us
youíll do whatever, whatever it takes to get to where we are now, to get to
where we are now

bridge: guitar 2
eb-------------------------------------------------->
Bb-------------------------------------------------->
Gb-7~----------------------------------------------->
Db-------------------------------------------------->
Ab-5~----------------------------------------------->
Db-------------------------------------------------->
never hold you back when youíre kids like us chasing our dreams and living
life for every second

bridge: guitar 1
eb-s--s--s--s--5--5--5--5--5--5--5--5--3--3--3--3--->
Bb--s--s--s--s--3--3--3--3--5--5--5--5--3--3--3--3-->
Gb---7--7--7--7--4--4--4--4--2--2--2--2--0--0--0--0->
Db-------------------------------------------------->
Ab-------------------------------------------------->
Db-------------------------------------------------->
never hold you back when youíre kids like us chasing our dreams and living
life for every second

---REPEAT CHORUS 2x

outro: guitar 2
eb--------->
Bb--------->
Gb--------->
Db-555-555->
Ab-555-555->
Db-555-555->
   *** ***
============================================================================
4. Wake the Regiment

   Tuning: Drop D

intro:
e----5-5--4-4-0---5-5--4----5-5--4-4-0---5-5--4-4-0---5-5--4-4-0---5-5--4~->
B-------------------------------------------------------------------------->
G-------------------------------------------------------------------------->
D-0xx---xx---x--xx---xx---00---00---0--00---00---0--00---00---0--00---00--->
A-0xx---xx---x--xx---xx---00---00---0--00---00---0--00---00---0--00---00--->
D-0xx---xx---x--xx---xx---00---00---0--00---00---0--00---00---0--00---00--->

verse 1:
e---5--4--0------5--4--0~--0--0--0--0--0--0--0--0----0----0----0----->
B------------2~-------------0--0--0--0--0--0--0--0----0----0----0---->
G----------------------------2--2--2--2--1--1--1--1-2--2-2--2-2--2-2->
D--0--0--0--0---0--0--0---2------------------------0----0----0----0-->
A-0--0--0--0---0--0--0---2------------------------------------------->
D-------------------------------------------------------------------->
itís never been this cold before, now itís getting to me

verse 1:
e-0----0----0----0----0----0----0----0----0----0--------------------------->
B--0----0----0----0----0----0----0----0----0----0-----3--3--2~--3--2------->
G---2-2--2-2--2-2--2-2--2-2--2-2--2-2--2-2--2-2--2-2-2--2--2---2--2--2~---->
D----0----0----0----2----4----4----4----2----2----2-0--0--0---0--0--0------>
A-------------------------------------------------------------------------->
D-------------------------------------------------------------------------->
writing my thoughts home to you not knowing if Iíll ever see your face
again again

chorus:
e-444444000000000000222222------------------------------------------------->
B-------333333------555555-------------3-3-3-3-3-3------------------------->
G-666666222222222222444444-6-6-6-6-6-6-2-2-2-2-2-2-2-2-2-2-2-2------------->
D-666666000000222222222222-6-6-6-6-6-6-0-0-0-0-0-0-2-2-2-2-2-2-2-2-2-2-2-2->
A-444444000000000000222222-4-4-4-4-4-4-0-0-0-0-0-0-0-0-0-0-0-0-2-2-2-2-2-2->
D-------000000------222222-------------0-0-0-0-0-0-------------2-2-2-2-2-2->
so wake the regiment weíre marching on tonight this is what we live for,
this is what we live for so wake the regiment weíre taking back whatís ours
home is what we die for, home is what we die for

fill:
e---5-5--4-4-0---5-5--4-4-0---5-5--4-4-0---5-5--4~->
B-------------------------------------------------->
G-------------------------------------------------->
D-00---00---0--00---00---0--00---00---0--00---00--->
A-00---00---0--00---00---0--00---00---0--00---00--->
D-00---00---0--00---00---0--00---00---0--00---00--->

verse 2:
e---5--4--0------5--4--0~--0--0--0--0--0--0--0--0----0----0----0----->
B------------2~-------------0--0--0--0--0--0--0--0----0----0----0---->
G----------------------------2--2--2--2--1--1--1--1-2--2-2--2-2--2-2->
D--0--0--0--0---0--0--0---2------------------------0----0----0----0-->
A-0--0--0--0---0--0--0---2------------------------------------------->
D-------------------------------------------------------------------->
now memories of yesteryear theyíre enough to get me through just one more
time Iím thinking about

verse 2:
e-0----0----0----0----0----0----0----0----0----0--------------------------->
B--0----0----0----0----0----0----0----0----0----0-----3--3--2~--3--2------->
G---2-2--2-2--2-2--2-2--2-2--2-2--2-2--2-2--2-2--2-2-2--2--2---2--2--2~---->
D----0----0----0----2----4----4----4----2----2----2-0--0--0---0--0--0------>
A-------------------------------------------------------------------------->
D-------------------------------------------------------------------------->
you and all the things that youíve taught me in this life Iíll remember
till I die

---REPEAT CHORUS

bridge:
e-55-544-4-------55-544-4-------------------------------------------------->
B---------55-5------------------------------------------------------------->
G-22-211-1----6~-22-211-16~--6666666666------------------------------------>
D---------22-2---------------666666666644444222220000022222444448888877777->
A-------------4~---------4~--444444444444444222220000022222444448888888888->
D--------------------------------------44444222220000022222444448888877777->
wake the regiment wake the regiment wake the regiment life is all wrong
life is all wrong life is all wake the re-gi-gi-ment

chorus 2:
e-------------------------------------------------------------------------->
B-------------------------------------------------------------------------->
G-------------------------------------------------------------------------->
D-000000000000000044444444422222222200000000022222222244444444488888877777->
A-000000000000000044444444422222222200000000022222222244444444488888888888->
D-000000000000000044444444422222222200000000022222222244444444488888877777->
so wake the regiment weíre marching on tonight this is what we live for,
this is what we live for so wake the regiment weíre taking back whatís ours
home is what we die for, home is what we die for

outro:
e---5-5--4-4-0---5-5--4-4-0---5-5--4-4-0---5-5--4->
B------------------------------------------------->
G------------------------------------------------->
D-00---00---0--00---00---0--00---00---0--00---00-->
A-00---00---0--00---00---0--00---00---0--00---00-->
D-00---00---0--00---00---0--00---00---0--00---00-->
============================================================================
5. One Eye Open

   Tuning: Drop D

intro: guitar 1
e---------------------------------------------------------------------->
B------------------0-0-000-0-0-0------------------------0-0-000-0-0-0~->
G------------------2-2-222-2-2-2++++++------------------2-2-222-2-2-2~->
D-2-2-444-2-2-2444-2-2-444-2-2-4++++++-2-2-444-2-2-2444-2-2-444-2-2-4~->
A-2-2-222-2-2-2222-0-0-000-0-0-0++++++-2-2-222-2-2-2222-0-0-000-0-0-0~->
D-2-2-222-2-2-2222--------------++++++-2-2-222-2-2-2222---------------->

verse 1: guitar 2
/e--------------------------------------------------------------------2--->|\
|B-----45454\0----454545/7---45454\0----454545/7-----45454\0----45454\0--->|
|G------------------------------------------------------------------------>|
|D------------------------------------------------------------------------>|
|A------------------------------------------------------------------------>|
|D------------------------------------------------------------------------>|
|                                                                        |
|verse 1: guitar 1                                                       |
|e------------------------------------------------------------------------>|
|B------------------------------------------------------------------------>|
|G------------2222------------------2222--------------------2222---------->|
|D-2222-------2222-------2222-------2222-------9\2222-------2222---------->|
|A-2222-------0000-------2222-------0000-------9\2222-------0000---------->|
\D-2222------------------2222------------------9\2222--------------------->|/
   ****       ****       ****       ****         ****       ****
donít fall asleep yet we havenít found a cure for what you have yet I need
you here for one more night weíll talk about the

verse 1: guitar 2
/e------------------------------------->|\
|B-----45454\0----454545/7~------------>|
|G------------------------------------->|
|D------------------------------------->|
|A------------------------------------->|
|D------------------------------------->|
|                                     |
|verse 1: guitar 1                    |
|e------------------------------------->|
|B------------------------------------->|
|G------------2222--------------------->|
|D-2222-------2222--------------------->|
|A-2222-------0000----------------0~--->|
\D-2222--------------------4~---------->|/
   ****       ****
stars and how they stay in flight or anything to keep you from sleeping
love so donít go yet

chorus: guitar 1
e--------------------------------------------------------------------->
B------------------0-0-000-0-0-0000------------------0-0-000-0-0-0000->
G-4-4-444-4-4-4444-2-2-222-2-2-2222-4-4-444-4-4-4444-2-2-222-2-2-2222->
D-2-2-444-2-2-2444-2-2-444-2-2-2444-2-2-444-2-2-2444-2-2-444-2-2-2444->
A-2-2-222-2-2-2222-0-0-000-0-0-0000-2-2-222-2-2-2222-0-0-000-0-0-0000->
D-2-2-222-2-2-2222------------------2-2-222-2-2-2222------------------>
we could fall asleep under the window sill and wake up to the morning light
as it drifts across the room donít forget better

chorus: guitar 1
e-------------------------------------------------------------------------->
B-------------------------------------------------------------------------->
G-------------------------------------------------------------------------->
D-444447~---222-222-222-222777-777-777-777222-222-222-222777-777-777-7772~->
A-444447~---222-222-222-222777-777-777-777222-222-222-222777-777-777-7772~->
D-444447~---222-222-222-222777-777-777-777222-222-222-222777-777-777-7772~->
days so wont you stay keep one eye open keep one eye open baby

verse 2: guitar 2
/e--------------------------------------------------------------------2--->|\
|B-----45454\0----454545/7---45454\0----454545/7-----45454\0----45454\0--->|
|G------------------------------------------------------------------------>|
|D------------------------------------------------------------------------>|
|A------------------------------------------------------------------------>|
|D------------------------------------------------------------------------>|
|                                                                        |
|verse 2: guitar 1                                                       |
|e------------------------------------------------------------------------>|
|B------------------------------------------------------------------------>|
|G------------2222------------------2222--------------------2222---------->|
|D-2222-------2222-------2222-------2222-------9\2222-------2222---------->|
|A-2222-------0000-------2222-------0000-------9\2222-------0000---------->|
\D-2222------------------2222------------------9\2222--------------------->|/
   ****       ****       ****       ****
you havenít moved in quite some time but Iíll stay right here till you wake
up and if you donít Iíll stay here till the doctors pry my hands from yours
and

verse 2: guitar 2
/e------------------------------------->|\
|B-----45454\0----454545/7~------------>|
|G------------------------------------->|
|D------------------------------------->|
|A------------------------------------->|
|D------------------------------------->|
|                                     |
|verse 2: guitar 1                    |
|e------------------------------------->|
|B------------------------------------->|
|G------------2222--------------------->|
|D-2222-------2222--------------------->|
|A-2222-------0000----------------0~--->|
\D-2222--------------------4~---------->|/
drag me from the room screaming louder than the ambulances anything to keep
you from sleeping love so donít go yet

---REPEAT CHORUS

intro for bridge: guitar 2 (r= 11th fret)
e-------------------------------------------------------------->
B-------------------------------------------------------------->
G---------------------------------9-r-9---9-r-9---9-r-9--r-9--->
D--------------------------------9-----9-9-----9-9-----9----9-->
A-------------------------------------------------------------->
D-------------------------------------------------------------->
keep one eye open keep one eye open

bridge: guitar 2                      |guitar 1
e--------------------------------------4-4-4-444--------------------------->
B--------------------------------------5-5-5-555999-9-999------------------>
G--9-r-9-9-r-9-9-r-9-9-r-9-8-r-8-8-r-8-4-4-4-444999-9-999------------------>
D-9-----9-----9-----9-----9-----9------4-4-4-444777-7-777-r-r-r-r-999-9-9~->
A--------------------------------------4-4-4-444777-7-777-r-r-r-r-999-9-9~->
D--------------------------------------4-4-4-444777-7-777-r-r-r-r-999-9-9~->
cause we all fall away sometimes but itís ok, you know its ok He will pick
us up and point us the right way and point us the right way please

bridge: guitar 2
e------------------------------>
B------------------------------>
G------------------------------>
D-4~----4/7~----7/r~----r\9~--->
A-4~----4/7~----7/r~----r\9~--->
D-4~----4/7~----7/r~----r\9~--->
stay please stay please stay

chorus: guitar 1
e--------------------------------------------------------------------->
B------------------0-0-000-0-0-0000------------------0-0-0~----------->
G-4-4-444-4-4-4444-2-2-222-2-2-2222-4-4-444-4-4-4444-2-2-2~----------->
D-2-2-444-2-2-2444-2-2-444-2-2-2444-2-2-444-2-2-2444-2-2-4~----------->
A-2-2-222-2-2-2222-0-0-000-0-0-0000-2-2-222-2-2-2222-0-0-0~----------->
D-2-2-222-2-2-2222------------------2-2-222-2-2-2222------------------>
we could fall asleep under the window sill and wake up to the morning light
as it drifts across the room donít forget better

chorus: guitar 1 (\*= scrape your pick down the strings indicated; also do
                  this in the previous chorus riff)
e------------------------------------------------------------------------>
B------------------------------------------------------------------------>
G------------------------------------------------------------------------>
D-4~----\*--2-2-2-2-2-2-2-27-7-7-7-7-7-7-72-2-2-2-2-2-2-27-7-7-7-7-7-7-7->
A-4~----\*--2-2-2-2-2-2-2-27-7-7-7-7-7-7-72-2-2-2-2-2-2-27-7-7-7-7-7-7-7->
D-4~--------2-2-2-2-2-2-2-27-7-7-7-7-7-7-72-2-2-2-2-2-2-27-7-7-7-7-7-7-7->
days so wont you stay keep one eye open keep one eye open baby so wont you

chorus: guitar 1
e-------------------------------------------------------------------------->
B-------------------------------------------------------------------------->
G-----------------------------------------------------------------------4~->
D-2-2-2-2-2-2-2-27-7-7-7-7-7-7-72-2-2-2-2-2-2-27-7-7-7-7-7-7-72~--------2~->
A-2-2-2-2-2-2-2-27-7-7-7-7-7-7-72-2-2-2-2-2-2-27-7-7-7-7-7-7-72~--------2~->
D-2-2-2-2-2-2-2-27-7-7-7-7-7-7-72-2-2-2-2-2-2-27-7-7-7-7-7-7-72~--------2~->
stay keep one eye open keep one eye open baby keep one eye open keep one
eye open baby

e------------------->
B-0~---------------->
G-2~---------------->
D-2~---------------->
A-0~---------------->
D------------------->
============================================================================
6. Price for Love

   Tuning: Flat and Drop D

intro: guitar 1 (r= 11th fret, s= 10th fret)
eb-----6-----6--6-6h88-8----8--------6---6-----6-----6---66---->
Bb------6---6-6---------r--r-r------6-6-6-6-----6--6--6-------->
Gb-00-0--0-0---0----------s---s----0---0---0--0---0------------>
Db------------------------------------------------------------->
Ab---8~--------------8---8-----8--6----6-----6---6--5---5-6--5->
Db------------------------------------------------------------->

intro: guitar 1
eb-----6-----6h88-8------8--------6---6-----6-----6---66--->
Bb----6-6---6------r--r-r-----6-6-6-6-----6--6--6--6------->
Gb---0---0-----------s-----s-0---0---0--0---0----0--------->
Db--0-----0------------------------------------------------>
Ab--------------8---8-------8--6----6-----6---6--5---5-6--->
Db-5~------5----------------------------------------------->

verse 1: guitar 1
eb-6-66-6-666h88-88-8-888-6-6-666-666-6-6-66-666->
Bb-6-66-6-666--r-rr-r-rrr-6-6-666-666-6-6-66-666->
Gb-0-00-0-000--s-ss-s-sss-0-0-000-000-0-0-00-000-> repeat
Db----------------------------------------------->
Ab-------------8-88-8-888-6-6-666-666-5-5-56-666->
Db----------------------------------------------->
the lights go out in my corner of the world tonight and so do the lights in
your eyes yeah, so did the lights in your eyes

verse 1: guitar 1
eb-6-66-6-666h88-88-8-888-6-6-666-666-66~-->
Bb-6-66-6-666--r-rr-r-rrr-6-6-666-666-66~-->
Gb-0-00-0-000--s-ss-s-sss-0-0-000-000-00~-->
Db----------------------------------------->
Ab-------------8-88-8-888-6-6-666-666-66~-->
Db----------------------------------------->
now I donít want to preach at you, I just care too much to let you walk
away from this

chorus: guitar 2 (r= 11th fret, s= 10th fret)
eb--------------6-66666-6666-1-1111-11111-1-1111-11111->
Bb-r-rrrr-rrrrr-8-88888-8888-4-4444-44444-4-4444-44444->
Gb-s-ssss-sssss-7-77777-7777-3-3333-33333-3-3333-33333-> repeat
Db-8-8888-88888-5-55555-5555-1-1111-11111-1-1111-11111->
Ab-8-8888-88888-5-55555-5555-1-1111-11111-1-1111-11111->
Db-8-8888-88888-5-55555-5555-1-1111-11111-1-1111-11111->
and He died so never forget, forget His love yeah, He died to show us the
price you pay for love
[ Tab from: http://www.guitaretab.com/t/the-wedding/73379.html ]
verse 2: guitar 1
eb-6-66-6-666h88-88-8-888-6-6-666-666-6-6-66-666->
Bb-6-66-6-666--r-rr-r-rrr-6-6-666-666-6-6-66-666->
Gb-0-00-0-000--s-ss-s-sss-0-0-000-000-0-0-00-000-> repeat
Db----------------------------------------------->
Ab-------------8-88-8-888-6-6-666-666-5-5-56-666->
Db----------------------------------------------->
I never said that this would be easy in fact itís the hardest thing that
you will ever do

verse 2: guitar 1
eb-6-66-6-666h88-88-8-888-6-6-666-666-66~-->
Bb-6-66-6-666--r-rr-r-rrr-6-6-666-666-66~-->
Gb-0-00-0-000--s-ss-s-sss-0-0-000-000-00~-->
Db----------------------------------------->
Ab-------------8-88-8-888-6-6-666-666-66~-->
Db----------------------------------------->
but donít worry they will never capture you youíve already been set free
from this

---REPEAT CHORUS

fill: guitar 1
eb------------------>
Bb------------------>
Gb-3~----2h3/5-3~--->
Db------------------>
Ab------------------>
Db------------------>

bridge: piano
so right your wrongs and make your amends we are running out of time right
your wrongs and make your amends we are running out of time

bridge: guitar 2
eb------------------------------------------------------------------------->
Bb------------------------------------------------------------------------->
Gb-7777777777777777-333333333333333-7777777777777777-33333333333++++-++++-->
Db-7777777777777777-333333333333333-7777777777777777-33333333333++++-++++-->
Ab-5555555555555555-111111111111111-5555555555555555-11111111111++++-++++-->
Db-5555555555555555-111111111111111-5555555555555555-11111111111++++-++++-->
(time...)

bridge: guitar 2
eb--------------------------------------------------------------------->
Bb--------------------------------------------------------------------->
Gb-7777777777777777-333333333333333-7777777777777777-333333333333333~-->
Db-7777777777777777-333333333333333-7777777777777777-333333333333333~-->
Ab-5555555555555555-111111111111111-5555555555555555-111111111111111~-->
Db-5555555555555555-111111111111111-5555555555555555-111111111111111~-->
this is our song can you hear it? this is our song that we sing to you can
you hear me, can you hear me?

---REPEAT CHORUS

---REPEAT CHORUS piano only

end on: guitar 1
eb-6~------------------->
Bb-6~------------------->
Gb-7~------------------->
Db-7~------------------->
Ab-5~------------------->
Db-5~------------------->
============================================================================
7. Death by Xanga

This is not a song I was able to tab.  If you can tab this song, you're a
genius. (Seriously, it's like not even played, it's more like computer
generated stuff.)

============================================================================
8. 479HxC (Through the Night)

   Tuning: Flat and Drop D

intro: guitar 2                                                   |gt. 1  |
eb------------------------------------------------------------------------->
Bb------------------------------------------------------------------------->
Gb----------------------------------------------------------------32-32-32->
Db-333313-3--3-3-3-333-333-333-333-333-333-333-333-333-333-333-33333-33-33->
Ab-333313-3--3-3-3-333-333-333-333-333-333-333-333-333-333-333-333--------->
Db-333313-3--3-3-3-333-333-333-333-333-333-333-333-333-333-333-333--------->
   ****** *  * * *
  whoaaaaaaaaa so Iíll take my chances on the road again so Iíll take my
chances on the road again

verse 1: guitar 1
eb----------------------------------------------------------------->
Bb----------------------------------------------------------------->
Gb-32-32-32-32-3-2-32-32-32-32-3-2-32-32-32-32-3-2-55-55-55-55-5-5->
Db-33-33-33-33-3-3-33-33-33-33-3-3-33-33-33-33-3-3-55-55-55-55-5-5->
Ab----------------------------------------------------------------->
Db----------------------------------------------------------------->
so sick and tired of this fighting we havenít left camp yet and wars have
broken out on all sides

verse 1: guitar 1            repeat this\/
/eb--------------------------------------------|------------------------>|\
|Bb--------------------------------------------|------------------------>|
|Gb---2h3p2--2h3p2--2h3p2--2h3p2--2h3p2--2h3p2-|---2h3p2-3-2-32-3-5~---->|
|Db-33-----33-----33-----33-----33-----33------|-33--------------------->|
|Ab--------------------------------------------|------------------------>|
|Db--------------------------------------------|------------------------>|
|   **     **     **     **     **     **        **                    |
|verse 1: guitar 2                                                     |
|eb--------------------------------------------------------------------->|
|Bb--------------------------------------------------------------------->|
|Gb-------------------------------------------------55555555555555555--->|
|Db-------------------------------------------------55555555555555555--->|
|Ab-------------------------------------------------33333333333333333--->|
\Db--------------------------------------------------------------------->|/
whatever happened to loyalty getting the upper hand on jealousy take the
stand itís gonna take to change the tide so

chorus: guitar 2                                                  gt. 1
eb---------------------------------------------------------------|--------->
Bb---------------------------------------------------------------|--------->
Gb-3333333--------+3333333--------3333333--------+3333333--------|32-32-32->
Db-33333333333333-+3333333-+33333333333333333333-+3333333-+333333|33-33-33->
Ab-11111113333333-+1111111-+33333311111113333333-+1111111-+333333|--------->
Db--------3333333----------+333333-------3333333----------+333333|--------->
and as we drive through the night, weíll be thinking of you weíll be thinking of you and 
we drive through the night weíll be thinking of you
weíll be thinking of you

verse 2: guitar 1
eb----------------------------------------------------------------->
Bb----------------------------------------------------------------->
Gb-32-32-32-32-3-2-32-32-32-32-3-2-32-32-32-32-3-2-55-55-55-55-5-5->
Db-33-33-33-33-3-3-33-33-33-33-3-3-33-33-33-33-3-3-55-55-55-55-5-5->
Ab----------------------------------------------------------------->
Db----------------------------------------------------------------->
well I wish that these feet would grow roots become a part of this ground
so Iíd have somewhere to belong

verse 2: guitar 1            repeat this\/
/eb--------------------------------------------|------------------------>|\
|Bb--------------------------------------------|------------------------>|
|Gb---2h3p2--2h3p2--2h3p2--2h3p2--2h3p2--2h3p2-|---2h3p2-3-2-32-3-5~---->|
|Db-33-----33-----33-----33-----33-----33------|-33--------------------->|
|Ab--------------------------------------------|------------------------>|
|Db--------------------------------------------|------------------------>|
|   **     **     **     **     **     **        **                    |
|verse 2: guitar 2                                                     |
|eb--------------------------------------------------------------------->|
|Bb--------------------------------------------------------------------->|
|Gb----------------22222222222222-3333333333333-----5555555555555555---->|
|Db-33333333333333-33333333333333-3333333333333-----5555555555555555---->|
|Ab-33333333333333-00000000000000-1111111111111-----3333333333333333---->|
\Db-33333333333333------------------------------------------------------>|/
    ************** ************** *************
   \------make this match whatís above it------/
and as the sun rises above the battlefield where brothers fell I promise it
wonít end for me that way so

---REPEAT CHORUS

bridge: guitar 1
/eb--------------------------------------------------------------------->|\
|Bb------1--------111-----1--------1--1---1---1---1---1---1---1---1----->|
|Gb----------------------------0~--------0-------0-------0-------0------>|
|Db-33333-33333333---33333-3333----------------------------------------->|
|Ab--------------------------------------------------------------------->|
|Db--------------------------------------------------------------------->|
|   ***** ********   ***** ****                                        |
|bridge: guitar 2                                                      |
|eb--------------------------------------------------------------------->|
|Bb--------------------------------------------------------------------->|
|Gb--------------------------------------------------------------------->|
|Db---------------------------------000000000000000000000000000000000--->|
|Ab---------------------------------000000000000000000000000000000000--->|
\Db---------------------------------000000000000000000000000000000000--->|/
                                    *********************************
and each other is all that we have left they canít take that away

bridge: guitar 1
/eb------------------------------------------------------------------->|\
|Bb--1---1---1---1---1---1---1---1---1---1---1---1---1---1---1---1---->|
|Gb-----0-------0-------0-------0-------0-------0-------0-------0----->|
|Db------------------------------------------------------------------->|
|Ab------------------------------------------------------------------->|
|Db------------------------------------------------------------------->|
|                                                                    |
|bridge: guitar 2                                                    |
|eb----------------------------------------------------------------->|
|Bb----------------------------------------------------------------->|
|Gb----------------------------------------------------------------->|
|Db-333333333333333333333333333333300000000000000000000000000000000->|
|Ab-333333333333333333333333333333300000000000000000000000000000000->|
\Db-333333333333333333333333333333300000000000000000000000000000000->/
    ***************************************************************

chorus: guitar 2
eb------------------------------------------------------------------------->
Bb------------------------------------6~----------------------------------->
Gb-33333333---------3-----------------5~----3333333--------+333333--------->
Db-333333333333333333-----------3-----------33333333333333-+333333-+333333->
Ab-111111113333333331-----------3-----------11111113333333-+111111-+333333->
Db---------333333333------------3------------------3333333---------+333333->
    *************
and as we drive through the night, weíll be thinking of you weíll be
thinking of you and as we drive through the night weíll be thinking of you
weíll be thinking of you

outro: guitar 1
/eb--------------------------(+4)------------------------------------------->|\
|Bb-----------------------------(+5)--(+5)~-6~------------------------------>|
|Gb--------------------------------(+5)------------------------------------->|
|Db------------------------------------------------------------------------->|
|Ab------------------------------------------------------------------------->|
|Db------------------------------------------------------------------------->|
|                                                                          |
|outro: guitar 2                                                           |
|eb------------------------------------------------------------------------->|
|Bb------------------------------------------------------------------------->|
|Gb------------------------------------------------------------------------->|
|Db-3~--\2~--\1~--\0~----33-33----------------333-333-333-333-333-333-333--->|
|Ab-3~--\2~--\1~--\0~----33-33----------------333-333-333-333-333-333-333--->|
\Db-3~--\2~--\1~--\0~----33-33----------------333-333-333-333-333-333-333--->|/
                         ** **
so Iíll take my chances on the road again so Iíll take my chances on the
road again so Iíll take my chances on the road again

outro: guitar 2
eb--------------------------------------->
Bb--------------------------------------->
Gb--------------------------------------->
Db-333-333-333-333-333-333-333--33-3-333->
Ab-333-333-333-333-333-333-333--33-3-333->
Db-333-333-333-333-333-333-333--33-3-333->
so Iíll take my chances on the road again
============================================================================
9. Joyride

   Tuning: Flat and Drop D

intro: guitar 1
eb---------------------------------->
Bb---------------------------------->
Gb-2-2-2-2-2-2-2-2-2-2-2-2-2-2-2-2-->
Db---------------------------------->
Ab--0-0-0-0-0-0-0-0-0-0-0-0-0-0-0-0->
Db---------------------------------->

intro/chorus: guitar 2
eb------------------------------------------------->
Bb------------------------------------------------->
Gb-7-7-----------------------7-7------------------->
Db-7-7----0-0----7-7---------7-7----0-0----7-7----->
Ab-5-5----0-0----7-7---------5-5----0-0----7-7----->
Db-5-5----0-0----7-7---------5-5----0-0----7-7----->
wonít you come and take a ride with me Iíll take you to all beautiful
places that youíve never seen but you always wanted to

fill: guitar 1
/eb------------------------------------------------------------------>|\
|Bb------------------------------------------------------------------>|
|Gb------------------------------------------------------------------>|
|Db-004020-0-04540-004020-0-0454020004020-0-0454h5p4h5p4h5p4h5p4h5--->|
|Ab------------------------------------------------------------------>|
|Db------------------------------------------------------------------>|
|                                                                   |
|fill: guitar 2                                                     |
|eb------------------------------------------------------------------>|
|Bb------------------------------------------------------------------>|
|Gb------------------------------------------------------------------>|
|Db-\2-2--+2--2---+5-5---+5--5------2-2--+2--2---+5-5---+5~---------->|
|Ab-\2-2--+2--2---+5-5---+5--5------2-2--+2--2---+5-5---+5~---------->|
\Db-\2-2--+2--2---+5-5---+5--5------2-2--+2--2---+5-5---+5~---------->|/

verse 1: guitar 1
eb------------------------------------------------------------------>
Bb------------------------------------------------------------5/8\7->
Gb-9-9-999-9999-7-777-7777/12-121212-12121212-14-141414-141414------>
Db-9-9-999-9999-7-777-7777/12-121212-12121212-14-141414-141414------>
Ab-7-7-777-7777-5-555-5555/10-101010-10101010-12-121212-121212------>
Db------------------------------------------------------------------>
       *   *      *   *        *      *           *      *
weíre fighting against the mainstream against everything they tell us we
should be

verse 1: guitar 2
eb----------------------------------------------------------------->
Bb----------------------------------------------------------------->
Gb----------------------------------------------------------------->
Db-\222-222-222-222-000-000-000-000-555-555-555-555-777-777-777~--->
Ab-\222-222-222-222-000-000-000-000-555-555-555-555-777-777-777~--->
Db-\222-222-222-222-000-000-000-000-555-555-555-555-777-777-777~--->
    **  **  **  **  **  **  **  **  **  **  **  **  **  **  **
weíre striving to mold our lives by our dreams so our dreams can become
reality

chorus: guitar 2
eb------------------------------------------------------------------------->
Bb------------------------------------------------------------------------->
Gb-7-7-------------------7-7--------------9~--7777----------7777----------->
Db-7-7---0-0---7-7-------7-7---0-0---7-7--7~--7777000077777777770000777777->
Ab-5-5---0-0---7-7-------5-5---0-0---7-7------5555000077777755550000777777->
Db-5-5---0-0---7-7-------5-5---0-0---7-7------5555000077777755550000777777->
wonít you come and take a ride with me Iíll take you to all beautiful
places that youíve never seen but you always wanted to and weíll find our
hearts on this lonely stretch of road and I will be here

---REPEAT FILL

verse 1: guitar 1
eb------------------------------------------------------------------>
Bb------------------------------------------------------------5/8\7->
Gb-9-9-999-9999-7-777-7777/12-121212-12121212-14-141414-141414------>
Db-9-9-999-9999-7-777-7777/12-121212-12121212-14-141414-141414------>
Ab-7-7-777-7777-5-555-5555/10-101010-10101010-12-121212-121212------>
Db------------------------------------------------------------------>
       *   *      *   *        *      *           *      *
weíre trying to win our hearts back in a world where we just donít know who
we are

verse 1: guitar 2
eb----------------------------------------------------------------->
Bb----------------------------------------------------------------->
Gb----------------------------------------------------------------->
Db-\222-222-222-222-000-000-000-000-555-555-555-555-777-777-777~--->
Ab-\222-222-222-222-000-000-000-000-555-555-555-555-777-777-777~--->
Db-\222-222-222-222-000-000-000-000-555-555-555-555-777-777-777~--->
    **  **  **  **  **  **  **  **  **  **  **  **  **  **  **
weíre trying to win our hearts in a world where the others are the ones who
wear the crown

---REPEAT CHORUS

fill 2: guitar 1
/eb------------------------------------>|\
|Bb------------------------------------>|
|Gb------------------------------------>|
|Db-40204020402040204020402040204020->|
|Ab---------------------------------->|
|Db---------------------------------->|
|                                     |
|fill 2: guitar 2                     |
|eb------------------------------------>|
|Bb------------------------------------>|
|Gb------------------------------------>|
|Db-----------------4020402040204020--->|
|Ab------------------------------------>|
\Db------------------------------------>|/
                                  so

bridge: guitar 1    repeat, let this ring\/ on repeated measure
/eb-------------------------------------------------->|\
|Bb-------------------------------------------------->|
|Gb-------------------------------------------------->|
|Db----77777777744222222222---77777777744222222222--->|
|Ab-------------------------------------------------->|
|Db-------------------------------------------------->|
|                                                   |
|bridge: guitar 2                                   |
|eb-------------------------------------------------->|
|Bb-------------------------------------------------->|
|Gb--------------------------------------777777777--->|
|Db-2-2-----------7777777772-2-----------777777777--->|
|Ab-2-2-----------7777777772-2-----------555555555--->|
\Db-2-2-----------7777777772-2-----------555555555--->|/
follow your heart and you will find it on your own and itíll all become
clear by the time we make it home and weíll always remember these talks
that weíve had and I will be here

chorus: guitar 2
eb------------------------------------------------------------------------->
Bb------------------------------------------------------------------------->
Gb-7~----------------7~---------------------------------------------------->
Db-7~---0~---7~------7~---0~---7~-------555555500000007777777555555000007b->
Ab-5~---0~---7~------5~---0~---7~-------555555500000007777777555555000007b->
Db-5~---0~---7~------5~---0~---7~-------555555500000007777777555555000007b->
                                        ********************************
wonít you come and take a ride with me Iíll take you to all beautiful
places that youíve never seen but you always wanted to and weíll find our
hearts on this lonely stretch of road and I will be

so follow your hearts and

bridge: guitar 2
eb------------------------------------------------------------------------->
Bb------------------------------------------------------------------------->
Gb---------7777------------7777------------7777-------------7~------------->
Db-77777777777700007777777777770000777777777777000077777777-7~---0~---7~--->
Ab-77777777555500007777777755550000777777775555000077777777-5~---0~---7~--->
Db-77777777555500007777777755550000777777775555000077777777-5~---0~---7~--->
you will find it on your own and itíll all become clear by the time we make
it home and weíll always remember these talks that weíve had and I will be
here and I will be here

outro: guitar 2 (r=10th fret)
eb---------------------------------------->
Bb----------------rr--rr-----999999r~----->
Gb-7~-------------99999999~--9999999~----->
Db-7~---0~---7~---77777777~--------------->
Ab-5~---0~---7~--------------------------->
Db-5~---0~---7~--------------------------->
and I will be here
============================================================================
10. But a Breath

This song has no guitar; it's all piano.

============================================================================
11. Water Under the Bridge

   Tuning: Drop D

piano                  VERY IMPORTANT
                       \/ \/ \/ \/ \/
intro: guitar 1 (r= 10th fret, s= 12th fret)
e-------------------------------------------------------------------------->
B-------------------------------------------------------------------------->
G--------------------------5-54-4-----------------------------5-54-4------->
D-2/7~---7/9-9-9hr--r\5-5~-------5~--5/7~--7/9-9-9hr--s\r\9\5~------5~-5/7->
A-------------------------------------------------------------------------->
D-------------------------------------------------------------------------->

more piano

intro: guitar 1
/e------------------------------------------->|\
|B------------------------------------------->|
|G------------------------------------------->|
|D------------------------------------------->|
|A-----------------------------3/r~--rrhs---->|
|D------------------------------------------->|
|                                           |
|intro: guitar 2                            |
|e------------------------------------------->|
|B------------------------------------------->|
|G-2222----2222------------------------------>|
|D-2222----2222----3333----3333-------------->|
|A-0000----0000----3333----3333-------------->|
\D-----------------3333----3333-------------->|/

verse 1: guitar 1
e-------------------------------------------------------------------------->
B-------------------------------------------------------------------------->
G-------------------------------------------------------------------------->
D-------------------------------------------------------------------------->
A-/15~----14---\r~-----rhs-r+r+r+r+r+r+r+r+r+r+r+r+r+r+r+r\3+3+3+3+3+3+3+3->
D-------------------------------------------------------------------------->
all this work means nothing without you itís elementary at best when your
voice is the one that wakes up the morning just lay my heart to

verse 1: guitar 1
e------------------->
B------------------->
G------------------->
D------------------->
A-33332/3/5\3\2/3\2->
D------------------->
rest

chorus: guitar 1 (repeat)
/e-------------------------------------------------------------------------->|\
|B-------------------------------------------------------------------------->|
|G-------------------------------------------------------------------------->|
|D-------------------------------------------------------------------------->|
|A-----3/5\3\2/3\2/3\2/3\2----3/5\3\2/3\2/3\2/3\2----3/r~--\3333/r--r/s\r--->|
|D-------------------------------------------------------------------------->|
|                                                                          |
|chorus: guitar 2                                                          |
|e-------------------------------------------------------------------------->|
|B-------------------------------------------------------------------------->|
|G-2222-------------------2222---------------------------------------------->|
|D-2222-------------------2222-------------------3333-------3333------------>|
|A-0000-------------------0000-------------------3333-------3333------------>|
\D-----------------------------------------------3333-------3333------------>|/
itís water under the bridge you say itís gone when it passes here and you
wonít bring it up again, so I wonít bring it up again itís water under the
bridge you say itís gone when it passes here and you wonít bring it up
again, so I wonít bring it up again

verse 1: guitar 1
e-------------------------------------------------------------------------->
B-------------------------------------------------------------------------->
G-------------------------------------------------------------------------->
D-------------------------------------------------------------------------->
A-/15~----14---\r~-----rhs-r+r+r+r+r+r+r+r+r+r+r+r+r+r+r+r\3+3+3+3+3+3+3+3->
D-------------------------------------------------------------------------->
and all of my heroes, they have fallen but I will not be next so come
whatever may you think youíre a tough guy I canít feel

verse 1: guitar 1
e------------------->
B------------------->
G------------------->
D------------------->
A-33332/3/5\3\2/3\2->
D------------------->
heaven anymore

---REPEAT CHORUS

fill: guitar 1
e-------------------------------------------------------------------------->
B---------------------5----6---6-5-----------------------5----6---6-5------>
G---s--s--s--s-s----5---5-5-5-5-5-5----s--s--s--s-s----5---5-5-5-5-5-5----->
D-r--9---r-r9-9-9\3------3---3-----3/r--9---r-r9-9-9\3------3---3-----3---->
A-------------------------------------------------------------------------->
D-------------------------------------------------------------------------->
(conversationís useless, Iím wasting all my time youíre not the same person
I remember in my mind)

fill: guitar 1
e-------------------------------------------------------------------------->
B---------------------5----6---6-5----------------------------------------->
G---s--s--s--s-s----5---5-5-5-5-5-5----s--s--s--s-s--9999999999999ssssssss->
D-r--9---r-r9-9-9\3------3---3-----3/r--9---r-r9-9-9-rrrrrrrrrrrrrrrrrrrrr->
A-------------------------------------------------------------------------->
D-------------------------------------------------------------------------->

bridge: guitar 2 (play 3 times)                         ending 1    2    3
e-----------------------------------------------------------|-----|----|--->
B-----------------------------------------------------------|-----|----|--->
G-----------------------------------------------------------|-----|----|--->
D-000-000-----000-333-333-----333-777-777-----rrr-555-555---|-555-|-r\-|-5->
A-000-000-----000-333-333-----333-777-777-----rrr-555-555---|-555-|-r\-|-5->
D-000-000-----000-333-333-----333-777-777-----rrr-555-555---|-555-|-r\-|-5->
and conversationís useless (useless) weíre wasting all our time youíre not
the same person (person, person) I remember in my mind I told my old man
not to worry we all get there someday itís all in the journey and who you
love along the way

bridge: guitar 1 (repeat)
e-------------------------------------------------------------------->
B---------------------5~---------------------------------5~---------->
G---s---------------5------------------s---------------5------------->
D-r--9~----------\3-----------------/r--9~----------\3--------------->
A-------------------------------------------------------------------->
D-------------------------------------------------------------------->
conversationís useless, Iím wasting all my time youíre not the same person
I remember in my mind conversationís useless, Iím wasting all my time
youíre not the same person I remember in my mind

bridge: guitar 1
e-------------------------------------------------------------------------->
B-----------------------------------------------------------------5-------->
G------------------------------------------------------------------5------->
D-/r~-----------r\3~---------------3/r~------------r\3~-------------3~----->
A-------------------------------------------------------------------------->
D-------------------------------------------------------------------------->
conversationís useless, Iím wasting all my time youíre not the same person
I remember in my mind
============================================================================
12. Song for the Broken

   Tuning: Flat and Drop D

intro: guitar 1
eb-------------------------------------------------->
Bb-------------------------------------------------->
Gb-55555555555555555555--------4h54h54h54h5-----5~-->
Db-5555555555555555555555555555~-----------555555~-->
Ab-3333333333333333333333333333~-----------333333~-->
Db---------------------33333333~-----------33333---->
   ** * * ** * * ** * *** * **             ** *

intro: guitar 1
/eb---------------------------------------------------->|\
|Bb---------------------------------------------------->|
|Gb-55555555555555555555--------4h54h54h54h5-----5~---->|
|Db-5555555555555555555555555555~-----------555555~---->|
|Ab-3333333333333333333333333333~-----------333333~---->|
|Db---------------------33333333~-----------33333------>|
|   ** * * ** * * ** * *** * **             ** *      |
|intro: guitar 2                                      |
|eb---------------------------------------------------->|
|Bb---------------------------------------------------->|
|Gb-5~------------------------------------------------->|
|Db-5~------------------------------------------------->|
|Ab-3~------------------------------------------------->|
\Db---------------------------------------------------->|/

intro: guitar 2
eb----------------->
Bb----------------->
Gb-5555-555-555-55->
Db-5555-555-555-55->
Ab-3333-333-333-33->
Db----------------->
   ***  **  **  *

donít give up on the hope

verse 1: guitar 2
eb---------------------------------------------------------------->
Bb---------------------------------------------------------------->
Gb-44444444-55554444----------55555555-44444444-55554444---------->
Db-55555555-22222222-55555555-55555555-55555555-22222222-55555555->
Ab-22222222-00000000-33333333-33333333-22222222-00000000-33333333->
Db-------------------33333333----------------------------33333333->
that keeps you breathing cause after all is said and done, itís all your
lonely heart has so look forward to your day of liberation when you can
stop grieving

verse 1: guitar 2                   gt. 1
eb---------------------------------|-------------------------------------->
Bb---------------------------------|-------------------------------------->
Gb-55555-55-55-55-5555555-55-55-5-5|5555-55-55-55-4444-44-44-44-2222-5--4->
Db-55555-55-55-55-5555555-55-55-5-5|5555-55-55-55-5555-55-55-55-2222------>
Ab-33333-33-33-33-3333333-33-33-3-3|3333-33-33-33-2222-22-22-22-0000------>
Db---------------------------------|-------------------------------------->
   ***** ** ** ** ******* ** ** *   **** ** ** ** **** ** ** ** ****
so how much would it cost for you to gain every thing and everything you
lost deserved to be gone anyway so donít give up,

verse 1: guitar 1                                         gt. 2
eb-------------------------------------------------------|---------------->
Bb-------------------------------------------------------|---------------->
Gb------------------5555-55-55-55-4444-44-44-44-2222-5--4|---------------->
Db-555-555-5552320--5555-55-55-55-5555-55-55-55-2222-----|555-555-555-555->
Ab-333-333-333----3-3333-33-33-33-2222-22-22-22-0000-----|333-333-333-333->
Db-333-333-333-------------------------------------------|333-333-333-333->
   **  **  **       **** ** ** ** **** ** ** ** ****      **  **  **  **
yeah, donít give in to the world around you that pressures you to give up
the fight, roll over and die forget the way you were

chorus: guitar 2
eb------------------------------------------------------------------------->
Bb------------------------------------------------------------------------->
Gb-55555555-44444444-55554444----------55555555-44444444-55554444---------->
Db-55555555-55555555-22222222-55555555-55555555-55555555-22222222-555555~-->
Ab-33333333-22222222-00000000-33333333-33333333-22222222-00000000-333333~-->
Db----------------------------33333333----------------------------333333~-->
donít give up on the hope that keeps you breathing cause after all is said
and done, itís all your lonely heart has

verse 2: guitar 1
eb------------------------------------------------------------------------>
Bb------------------------------------------------------------------------>
Gb-55555-55-55-55-5555555-55-55-5-5-5555-55-55-55-4444-44-44-44-2222-5--4->
Db-55555-55-55-55-5555555-55-55-5-5-5555-55-55-55-5555-55-55-55-2222------>
Ab-33333-33-33-33-3333333-33-33-3-3-3333-33-33-33-2222-22-22-22-0000------>
Db------------------------------------------------------------------------>
   ***** ** ** ** ******* ** ** *   **** ** ** ** **** ** ** ** ****
and so how much pain could you take before you gave up would you throw it
all away would you fight for that one day when you heard your Savior say,

verse 2: guitar 1                                         gt. 2
eb-------------------------------------------------------|---------------->
Bb-------------------------------------------------------|---------------->
Gb------------------5555-55-55-55-4444-44-44-44-2222-5--4|---------------->
Db-555-555-5552320--5555-55-55-55-5555-55-55-55-2222-----|555-555-555-555->
Ab-333-333-333----3-3333-33-33-33-2222-22-22-22-0000-----|333-333-333-333->
Db-333-333-333-------------------------------------------|333-333-333-333->
   **  **  **       **** ** ** ** **** ** ** ** ****      **  **  **  **
when you heard your Savior say, ďmy child, I always knew youíd make it
home. so walk through those gates of gold and claim your throneĒ

---REPEAT CHORUS

bridge: guitar 1               gt. 2
eb----------------------------|------------------------------>
Bb----------------------------|------------------------------>
Gb------------------------4--5|5555555-444455-5555555-444455->
Db-3333333-333333-3333333-----|3333333-333333-3333333-333333->
Ab----------------------------|3333333-333333-3333333-333333->
Db----------------------------|3333333-333333-3333333-333333->
so I wait for you to save me so I wait for you to save me

bridge: guitar 2
eb-000000-000000-000000-000000->
Bb-333333-333333-333333-333333->
Gb-222222-222222-222222-222222->
Db-000000-000000-000000-000000->
Ab-000000-000000-000000-000000->
Db-000000-000000-000000-000000->
still I wait for you to lift me off my feet and

bridge: guitar 2
eb-------------------------------000000-000000-0~-------->
Bb-------------------------------333333-333333-3~-------->
Gb-5555555-444455-5555555-444455-222222-222222-2~-------->
Db-3333333-333333-3333333-333333-000000-000000-0~-------->
Ab-3333333-333333-3333333-333333-000000-000000-0~-------->
Db-3333333-333333-3333333-333333-000000-000000-0~-------->
so I wait for you to save me so I wait for you to save me still I wait for
you to lift me off my feet
----------------------------------------------------------------------------
still I wait for you in the dark of the night cause I wonít give up give up
the fight still I want for you In the dark of the night

bridge: guitar 1
eb-------3~-----3~-----3~---3~---3~-----3~-----3~----3~---->
Bb---------1~-----1~------1~-------1~-----1~------1~------->
Gb------0~-----0~-----0~--------0~-----0~-----0~-----------> repeat
Db----3~-----0~---------------3~-----0~-------------------->
Ab------------------3~----------------------3~------------->
Db--------------------------------------------------------->
still I wait for you again still I wait for you again cause in the dark of
the night is where youíll find me head held in my hands is where still I
wait for you

chorus: guitar 2
eb------------------------------------------------------------------------->
Bb------------------------------------------------------------------------->
Gb-55555555-44444444-55554444----------55555555-44444444-55554444---------->
Db-55555555-55555555-22222222-55555555-55555555-55555555-22222222-55555555->
Ab-33333333-22222222-00000000-33333333-33333333-22222222-00000000-33333355->
Db----------------------------33333333----------------------------33333333->
donít give up on the hope that keeps you breathing

cause after all is said and done, itís all your lonely heart has
----------------------------------------------------------------------------
so I wait for you to save me so I wait for you to save me

outro: guitar 2
eb---------->
Bb---------->
Gb---------->
Db-10\------>
Ab-10\------>
Db-10\------>
     /\slowly slide off
============================================================================

KEY:

h=    hammer-on
p=    pull-off
b=    bend
x, *= palm muting
+=    fret-hand muting
(+)=  harmonics
/=    slide up
\=    slide down
\*=   scraping pick down string

r, s, etc. = whatever I said they meant IN THAT PARTICULAR SONG.
============================================================================
THANKS,

-AQUAKNIGHT3
Related for The Wedding tab