Song name
# A B C D E F G H I J K L M N O P Q R S T U V W X Y Z

The Wedding - Say Your Prayers tab

Artist: The Wedding
Song: Say Your Prayers
Album: Polarity
Tuning: Drop D Flat

This is only the rhythm guitar.

Intro r=10
eb|-----------------------------------|
bb|-----------------------------------|
Gb|-----------------5555555-77777-----|
Db|-rrrrr99-rrrrr99-5555555-77777-5-7-|
Ab|-7777777-7777777-3333333-55555-5-7-|
Db|-7777777-7777777---------------5-7-| x2

Verse

bass part x2

eb|-----------------------------------|
bb|-----------------------------------|
Gb|-----------------5555555-77777-----|
Db|-7777777-7777777-5555555-77777-5-7-|
Ab|-7777777-7777777-3333333-55555-5-7-|
Db|-7777777-7777777---------------5-7-| x2

Chorus
eb|-------------------------------------------------------|
bb|-------------------------------------------------------|
Gb|-5555555555555555555555555555--------------------------|
Db|-5555555555555555555555555555-777777777777777777777777-|
Ab|-3333333333333333333333332222-777777777777777777777777-|
Db|------------------------------777777777777777777777777-|

eb|------------------------------------------------------------------------|
bb|------------------------------------------------------------------------|
Gb|-444455557777777777777777777777777777777-555555555555555555555555555555-|
Db|-444455557777777777777777777777777777777-555555555555555555555555555555-|
Ab|-222233335555555555555555555555555555555-333333333333333333333333333333-|
Db|------------------------------------------------------------------------|

Verse
eb|-----------------------------------|
bb|-----------------------------------|
Gb|-----------------5555555-77777-----|
Db|-7777777-7777777-5555555-77777-5-7-|
Ab|-7777777-7777777-3333333-55555-5-7-|
Db|-7777777-7777777---------------5-7-| x2

switches strumming pattern next, but same chords.

Chorus again

Trumpet Part
eb|-------------------------------------------------------|
bb|-------------------------------------------------------|
Gb|-5-7-5-8b-8b-8b-8b-8b---5-----------------5-7-5-7-5-8b-|
Db|--------------------------7---5---5---5-7--------------|
Ab|----------------------------7---7---7------------------|
Db|-------------------------------------------------------|

Interlude
eb|---------------------------------------|
bb|---------------------------------------|
Gb|---------------------------------------|
Db|---------------------------------------|
Ab|---7-5-3-2-2-0-2-0-----7-5-3-2-2-0-2-3-|
Db|-5-----------------5-5-----------------| x2

Look up say your prayers oh!
Look up say your prayers

eb|-----------------------------------------------------------------|
bb|-----------------------------------------------------------------|
Gb|----------------------------------555555555555555555555555555-7~-|
Db|-55555555555555555555555555555555-555555555555555555555555555-7~-|
Ab|-55555555555555555555555555555555-333333333333333333333333333-5~-|
Db|-55555555555555555555555555555555--------------------------------|

Chorus, then Intro to end the song.

This tab isn't as accurate as my Staring at the Light tab, but it's got the overall feel 
the song. Fool around with it and comment if you get something better.
Tap to rate this tab
 
# A B C D E F G H I J K L M N O P Q R S T U V W X Y Z