Song name
# A B C D E F G H I J K L M N O P Q R S T U V W X Y Z

The Weeknd - Material Girl tab

-------------------------------------------------------------------------------
			     MATERIAL GIRL - The Weeknd
-------------------------------------------------------------------------------
Tabbed by: daikirrainel
Email: daikirrai@live.com

Tuning: Standard Tuning.

I was messing around with my guitar while listening to it, and here's what I got! Hope 
you like it! :)

e|----x-----x-----x-----x-----x-----x---------------------------------------------|
B|----6----\5----\3----6----\5----/12---------------------------------------------|
G|----7----\5----\0----7----\5----/12---------------------------------------------|
D|----0----\0----\0----0----\0-----x----------------------------------------------|
A|----5----\3----\2----5----\3----/10---------------------------------------------|
E|----x-----x----x-----x-----x----x-----------------------------------------------|

Just play that for the whole song.

************************************
| /   slide up
| \   slide down
************************************
Tap to rate this tab
 
# A B C D E F G H I J K L M N O P Q R S T U V W X Y Z