Song name
# A B C D E F G H I J K L M N O P Q R S T U V W X Y Z

The Weeknd - Rolling Stone tab

-------------------------------------------------------------------------------
		Rolling Stone - The Weeknd
-------------------------------------------------------------------------------
Tabbed by: Mike

I decided to post this tab because unfortunately I don't agree with the two
other versions... This is the main part that loops throughout the song.

e|------------------------------------------------------------------|
B|---7-----7-----7---4-----4-----4---6-----6-----6---6-----6-----6--|
G|-----8-----8---------4-----4---------6-----6---------6-----6------|
D|------------------------------------------------------------------|
A|-6-----6-----6----------------------------------------------------|
E|-----------------4-----4-----4---6-----6-----6---6-----6-----6----|

At 2:50 something changes, it's a synth or something playing a few extra
notes on top of the main riff. This is my approximation of what to do if you
were to play it alone on your guitar.

e|------------------------------------------------------------------|
B|---7-----7-----7---4-----4-----4---6-----6-----6---6-----6-----6--|
G|-----8-----8---------4-----4---------6-----6---------6-----6------|
D|(4)--------------8-----8-----8------------------------------------|
A|-6-----6-----6-------------------8--------------------------------|
E|-----------------4-----4-----4---6-----6-----6---6-----6-----6----|


e|------------------------------------------------------------------|
B|---7-----7-----7---4-----4-----4---6-----6-----6---6-----6-----6--|
G|-----8-----8---------4-----4---------6-----6---------6-----6------|
D|(4)--------------8-----8-----8---6-----6-----6--------------------|
A|-6-----6-----6----------------------------------------------------|
E|-----------------4-----4-----4---6-----6-----6---6-----6-----6----|


e|------------------------------------------------------------------|
B|---7-----7-----7---4-----4-----4---6-----6-----6---6-----6-----6--|
G|-----8-----8---------4-----4---------6-----6---------6-----6------|
D|(4)--------------8-----8-----8------------------------------------|
A|-6-----6-----6-------------------8-----8--------------------------|
E|-----------------4-----4-----4---6-----6-----6---6-----6-----6----|


e|------------------------------------------------------------------|
B|---7-----7-----7---4-----4-----4---6-----6-----6---6-----6-----6--|
G|-----8-----8---------4-----4---------6-----6---------6-----6------|
D|(4)--------------8-----8-----8---6-----6-----6--------------------|
A|-6-----6-----6----------------------------------------------------|
E|-----------------4-----4-----4---6-----6-----6---6-----6-----6----|

And then at 3:20 it's the same as before. 
Tap to rate this tab
 
# A B C D E F G H I J K L M N O P Q R S T U V W X Y Z