Song name
# A B C D E F G H I J K L M N O P Q R S T U V W X Y Z

The Weeknd - Wicked Games tab

-Tabbed by Jefrey Judes-

99% sure it's perfect
Play tab throughout song, strum if you really want to.

   (1)     (2)     (3)     (4)
      
e|--2-------2-------2-------3---------------------------|
B|--3-------3-------3-------3---------------------------|
G|--4-------4-------4-------4---------------------------|
D|--4-------4-------4-------5---------------------------|
A|--2-------0-------x-------5---------------------------|
E|--x-------x-------3-------3---------------------------|
(Am Bar2)   -       -   (E Bar 3) 
   Bm      Bm7    Bmsus6    G         


   [1]               [2]               
e|--------------2~------------------2~------------------|
B|-----------3-------------------3----------------------|
G|--------4-------------------4-------------------------|
D|-----4-------------------4----------------------------|
A|--2---------------2---0-------------------------------|
E|------------------------------------------------------|

    [3]                   [4]
e|------2---------------------------------3~------------|
B|---------3---------------------------3----------------|
G|------------4-----4~--------------4-------------------|
D|---------------4---------------5----------------------|
A|--0---------------------0-----------------------------|
E|------3---------------------3-------------------------|


Repeat as necessary. Enjoy :)

[Legend]
~ Vibrato (Appears on last note of each chord)
Tap to rate this tab
# A B C D E F G H I J K L M N O P Q R S T U V W X Y Z