Song name
# A B C D E F G H I J K L M N O P Q R S T U V W X Y Z

The Weeknd - The Morning tab

what I can tab so far

Intro
|---------------------------------------------------------------------------17-16-16-|
|--10h12--10----10-12/14--17-17-14\12--10-14-14-17/19--19-19-17-19-17-19-------------|
|------------11----------------------------------------------------------------------|
|------------------------------------------------------------------------------------|
|------------------------------------------------------------------------------------|
|------------------------------------------------------------------------------------|

|-----------------------------------| ?
|--19\17-17-------------------------|
|-----------18-18-18-16\14-14\9-----| ?
|-----------------------------------| ?
|-----------------------------------| ?
|-----------------------------------| ?

Solo
|--12/14--12-------------5-7-9-12/14--12--------------------|
|------------14\12--10-7-----------------14\12--10-7-5-7-10-|
|-----------------------------------------------------------|
|-----------------------------------------------------------|
|-----------------------------------------------------------|
|-----------------------------------------------------------|

-CY. ;)
Tap to rate this tab
# A B C D E F G H I J K L M N O P Q R S T U V W X Y Z