Song name
# A B C D E F G H I J K L M N O P Q R S T U V W X Y Z

The Weeknd - Wanderlust tab

-------------------------------------------------------------------------------
                             Wanderlust - The Weeknd
-------------------------------------------------------------------------------
Tabbed by: Eric Nguyen
E-mail: eericdn@gmail.com

Tuning: Standard
Capo: 4th Fret


e|------------------------------------------------------------------------------|
B|-------0-1-------0-1-------0-1-------0-1-------0-1-------0-1-------0-1---1-0--|
G|-----2---------2---------2---------2---------2---------2---------2-----------2|
D|---2---------2---------2---------2---------2---------2---------2--------------|
A|-0---------0-------------------------------------------------0---------0------|
E|---------------------3---------3---------1---------1--------------------------|
 |                                                                              |
 |   Timing for 2nd Guitar                                                      |
e|------------------------------------------------------------------------------|
B|----------12b14~---------------9p7h9---------------11-9-9h11p-----------------|
G|--------------------------------------------------------------11~-------------|
D|------------------------------------------------------------------------------|
A|------------------------------------------------------------------------------|
E|------------------------------------------------------------------------------|


| h   hammer-on
| p   pull-off
| ~   vibrato
| b   Bend
Tap to rate this tab
# A B C D E F G H I J K L M N O P Q R S T U V W X Y Z