Song name
# A B C D E F G H I J K L M N O P Q R S T U V W X Y Z

The Weeknd - What You Need tab

-------------------------------------------------------------------------------
                             What You Need - The Weeknd
-------------------------------------------------------------------------------
Tabbed by: Eedn
E-mail: eericdn@gmail.com

Tuning: Standard
Capo: 3rd Fret

Based off of live performances.
This is repeated throughout the whole song, I split them into parts for convenience.
If you need a reference for rhythm try this video: http://www.youtube.com/watch?v=-0in8kMEw04
I tried my best and you can change the picking pattern if you want.

        Em                            Asus2     
e|-----------------|-------------|-----------------|--------------|
B|---------0-------|---------1-0-|---------0-------|---------1-0--|
G|-------------0---|-----0-------|-----2-------2---|-----2--------|
D|-----2-----2---2-|---2---2-----|---2---2---2---2-|---2---2------|
A|---2---2---------|-2-----------|-0---------------|-0------------|
E|-0---------------|-------------|-----------------|--------------|


        Em                            G
e|-----------------|-------------|-----------------|--------------|
B|---------0-------|---------1-0-|---------0-------|---------1-0--|
G|-------------0---|-----0-------|-------------0---|-----2--------|
D|-----2-----2---2-|---2---2-----|-----2-----0---0-|---2---2------|
A|---2---2---------|-2-----------|---2---2---------|-0------------|
E|-0---------------|-------------|-3---------------|--------------|
Tap to rate this tab
 
# A B C D E F G H I J K L M N O P Q R S T U V W X Y Z