Song name
# A B C D E F G H I J K L M N O P Q R S T U V W X Y Z

The Weepies - Somebody Loved tab

The Weepies Ė Somebody loved

I tried to make it understandable without tabbing it all out.. donít know if I 
succeed but weíll see. =)
I hope itís accurate, but if you notice any mistakes, please leave a comment.
But if you think itís great, rate it! =D

no capo, standard tuning

Part A

           C        Am       Em       G
e       |--0------------0--------0--------3---|
B	|----1-3----1--------0--------0-------|
G	|---------0---2---2----0---0----0-----|           x5
D	|-------------------------------------|
A	|--3--------0-------------------------|
E	|--------------------0--------3-------|
______________________________________________________________________

Part B (you turn me into somebody loved)

           F                 G
e       |-----1-------1---------3--------3------|
B	|-----1-------1---------0--------0------|
G	|-----2-------2---------0--------0------|  x1 right back to part A
D	|-----3-------3---------0--------0------|
A	|---------------------------------------|
E	|--1----1--1------1--3-----3--3----3----|

______________________________________________________________________

Part C

	   C        Am         F               G
e       |--0------------0---------1-------1--------3-------3----|
B	|----1-3----1-------------1-------1--------0-------0----|
G	|--------0----2---2-------2-------2--------0-------0----|     
D	|-------------------------3-------3--------0-------0----|
A	|--3--------0-------------------------------------------|
E	|----------------------1----1--1-----1--3-----3-3----3--|

______________________________________________________________________

Part D

strum:	F G  C Dm Am x 2 (strumming pattern: DDDDU etc)
F G 
_______________________________________________________________________

song progression: 
Part A & Part B x2
Part C & Part D
Part A & Part B x2
Part C (outro)
Tap to rate this tab
# A B C D E F G H I J K L M N O P Q R S T U V W X Y Z