Song name
# A B C D E F G H I J K L M N O P Q R S T U V W X Y Z

The Weepies - All That I Want tab

The Weepies - All that I want

This is my interpretation of the song and it works for me so..
If you have any corrections feel free to comment!

Intro & Verse (part 1)

e	|----------------------|
B	|--0h2-2-2-2-3-3-5-5---|
G	|--2---2-2-2-2-2-2-2---|
D	|------------0---------|
A	|--0-------------------|
E	|----------------------|

after 2nd chorus (part 2)

e	|------------------------------------|
B	|--5-5-5-5-5-5-5-5-5-5-5-5-4-4-4-4---|
G	|--6-6-6-6-6-6-6-6-2-2-2-2-4-4-4-4---|
D	|------------------------------------|
A	|--4-------4---------------2---------|
E	|------------------0-----------------|

______________________________________________________________________

	(play part 1)
out in the harbor
the ships come in, it's christmastime
the kids all holler carols 'cross the water
stars that shine

all that I want, all that I want

above the rooftops
the full moon dips its golden spoon
I wait on clip-clops, deer might fly
why not? I met you

all that I want, all that I want

(play part 2)
and when the night is falling
down the sky at midnight
another year is stalling
far away a good bye, good night

all that I want, all that I want (part 1) 

(part 2) 
so small a turning
the world grows older every day
an ache, a yearning
soften when I hear you say

all that I want, all that I want (part 1)

(part 2)
and when the cold wind's blowing
snow drifts through the pine trees
in houses lights are glowing
likewise in your eyes that find me here

with all that I want (part 1)

out in the harbor
the ships come in, it's christmastime
it's christmastime
it's christmastime.
Tap to rate this tab
# A B C D E F G H I J K L M N O P Q R S T U V W X Y Z