Song name
# A B C D E F G H I J K L M N O P Q R S T U V W X Y Z

The Weepies - Gotta Have You tab

Help us improve GuitareTab! Take a short survey!
Tuning: Standard
Capo IV

e|--------------------------------------------3------2-----0--|
B|------------------------------------------------------------|
G|--------0---2--/4\2\0-------------------0-------0-----0-----|
D|--0h2---------------0---0---0h2p0---------------------------|
A|------------------------------------------------------------|
E|------------------------------------------------------------|

e|-------------------------------------------------------------|
B|--1--1p0---1---3--1--1-----0---------------------------------|
G|-------------------------------2--0--0-----------0--------0--|
D|--------------------------------------------0h2--------2-----|
A|-------------------------------------------------------------|
E|-------------------------------------------------------------|
Related for Gotta Have You tab