Song name
# A B C D E F G H I J K L M N O P Q R S T U V W X Y Z

The Weepies - Take It From Me tab

Intro

mute after each strum
E|-3-3--1-1--0-0--0-x-|
B|-3-3--3-3--2-2--0-x-|
G|-0-0--2-2--2-2--1-0-|
D|-0-0--0-0--2-2--2-0-|
A|-2-2--x-x--0-0--2-0-|
E|-3-3--x-x--x-x--0-0-|

Verse/Chorus

E|------------------|
B|---7---7----------|
G|--7-7-7-7--7------|
D|-9---7----7-7-7-7-|
A|---------9---7-5--|
E|------------------|

Bridge

E|------------------|
B|------------------|
G|--9-9-7-7---------|
D|-7-7-7-7--7-7-7-7-|
A|---------9-9-7-7--|
E|------------------|
Tap to rate this tab
 
# A B C D E F G H I J K L M N O P Q R S T U V W X Y Z