Guitaretab - guitar tabs
Song name
# A B C D E F G H I J K L M N O P Q R S T U V W X Y Z

The Welch Boys - Friend Or Foe tab

The Welch Boys
The Welch Boys
Friend Or Foe

Intro/Chorus:
Guitar 1 and 2
---------------------------------|
-------------------------7-8-9---|
---7-7-7-7-------7-7-7-7-7-8-9---|
---7-7-7-7-5-6-7-7-7-7-7-5-6-7---|
---5-5-5-5-5-6-7-5-5-5-5---------|
-----------3-4-5-----------------|


---------------------------------|
---------------------------------|
---7-7-7-7-----------------------|
---7-7-7-7-5-6-7-7-7-7-7-7-7-7---|
---5-5-5-5-5-6-7-7-7-7-7-7-7-7---|
-----------3-4-5-5-5-5-5-5-5-5---|   x3


Verse:
-------------------------------|
-------------------------------|
---7---------------------------|
---7-------5-------2-------7---|
---5-------5-------2-------7---|
-----------3-------0-------5---|

[ Tab from: http://www.guitaretab.com/t/the-welch-boys/156143.html ]
-------------------------------------|
-------------------------------------|
---7-7-7-----------------------------|
---7-7-7---5-5-5---2-2-2---7-7-7-7---|
---5-5-5---5-5-5---2-2-2---7-7-7-7---|
-----------3-3-3---0-0-0---5-5-5-5---|


Bridge:
Guitar 1 and 2
---------------------------------------------|
---------------------------------------------|
-----------7-7-7-7-12-12-12-12-12-12-12-12---|
---9-9-9-9-7-7-7-7-12-12-12-12-12-12-12-12---|
---9-9-9-9-5-5-5-5-10-10-10-10-10-10-10-10---| x3
---7-7-7-7-----------------------------------|


---------------------------------------------|
---------------------------------------------|
-----------7-7-7-7-12-12-12-12-14-14-14-14---|
---9-9-9-9-7-7-7-7-12-12-12-12-14-14-14-14---|
---9-9-9-9-5-5-5-5-10-10-10-10-12-12-12-12---|  x1
---7-7-7-7-----------------------------------|

The Welch boys
http://www.thewelchboys.com
Related for Friend Or Foe tab
Advertisement will be closed in 10 seconds