Song name
# A B C D E F G H I J K L M N O P Q R S T U V W X Y Z

The Welch Boys - Les Paul tab

Help us improve GuitareTab! Take a short survey!
The Welch Boys
The Welch Boys
Les Paul

Intro;
Guitar 1
-----------------------------------------------------------------|
---------------5-8p0-8p0-8p0-8p0-------------5-6p0-6p0-6p0-6p0---|
---5p0-5p0-5p0-------------------5p0-5p0-5p0---------------------|
-----------------------------------------------------------------|
-----------------------------------------------------------------|
-----------------------------------------------------------------|


----------------------------------------------------------|
---5p0-5p0-5p0-5p0----------------------------------------|
-------------------7p0-7p0-7p0-9-5p0-5p0-5p0-5----/12v----|
----------------------------------------------------------|
----------------------------------------------------------|
----------------------------------------------------------|


Guitar 2
C    G    C    F    E    D    C

Verse:
Both Guitars
C    F    A    G
pm............pm


Chorus:
C    G    C    F    E    D    C

Order:
Intro
Verse
Chorus
Intro
Verse
Chorus
Nothing
Chorus
Related for Les Paul tab