Song name
# A B C D E F G H I J K L M N O P Q R S T U V W X Y Z

The Western States Motel - Powerlines tab

HERE'S THE CHORDS AND SOLO. RHYTHM'S ALL YOU. 

e|-0--0--0--3--|
B|-1--1--1--1--|
G|-2--0--0--2--|
D|-2--0--2--3--|                      INTRO/VERSE
A|-0--2--3--0--|
E|-x--x--x--x--|

e|-3-1-0--|
B|-0-1-1--|
G|-0-2-0--|
D|-0-3-2--|                         CHORUS
A|-2-3-3--|
E|-3-1-X--|

e|-1-1-0-0--|
B|-3-3-1-1--|
G|-2-0-2-0--|
D|-0-0-2-2--|                BACKGROUND FOR SOLO (THIS WORKS, BUT IF YOU HAVE
A|-0-2-0-3--|                        IT DOWN BETTER PLEASE COMMENT)
E|-X-X-X-X--|


SOLO (WOULD LOVE TO KNOW THE AMP SETTINGS - IF YOU DO, PLEASE COMMENT)

e|-------------------------------------------------------------|
B|-------------------------------------------------------------|
G|-------------------------------------------------------------|
D|----------------------------/5-5-7-2~------------------------|
A|-0-2-3-5-2-3-5/8-7~------------------------------------------|
E|-------------------------------------------------------------|

e|----------------------------------------------------|
B|----------------------------------------------------|
G|-----------1-4-5-4~---2-2~--------------------------|
D|-0-2-3-2-0-------------------/5~---2-2~-------------|
A|----------------------------------------------------|
E|----------------------------------------------------|

e|------------------------------------------------------------|
B|------------------------------------------1313131313131313--|
G|-5555555544444444101010101010101099999999-------------------|
D|------------------------------------------------------------|
A|------------------------------------------------------------|
E|------------------------------------------------------------|

e|------------------------------------------------------------|
B|-12121212101010101717171717171717---------------------------|
G|------------------------------------------------------------|
D|------------------------------------------------------------|
A|------------------------------------------------------------|
E|------------------------------------------------------------|

e|-131313131010101012121212888810101010777700007777--------------------|
B|-------------------------------------------------101010~---12-13-3~--|
G|---------------------------------------------------------------------|
D|---------------------------------------------------------------------|
A|---------------------------------------------------------------------|
E|---------------------------------------------------------------------|
Tap to rate this tab
# A B C D E F G H I J K L M N O P Q R S T U V W X Y Z