Song name
# A B C D E F G H I J K L M N O P Q R S T U V W X Y Z

The Whigs - Ok Alright tab

-------------------------------------------------------------------------------
			     O.K. Alright - The Whigs
-------------------------------------------------------------------------------
Tabbed by: AllmanGibson   
Email: Reidcalh@gmail.com
Originally from their Give 'Em All A Big Fat Lip Album

Tuning: Standard (EADGBe)

Riff 1=

e|--------9-9-9----------9-9-9-9--|--------9-9-9----------9-9-9-9--|
B|--9--9--9-9-9--9--9-9--9-9-9-9--|--9--9--9-9-9--9--9-9--9-9-9-9--|
G|--9--9---------9--9-9-----------|--9--9---------9--9-9-----------|
D|--9--9---------9--9-9-----------|--9--9---------9--9-9-----------|
A|--7--7---------7--7-7-----------|--7--7---------7--7-7-----------|
E|--------------------------------|--------------------------------|

Riff 2=

e|--------7-7-7----------7-7-7-7--|--------7-7-7----------7-7-7-7--|
B|--7--7--7-7-7--7--7-7--7-7-7-7--|--7--7--7-7-7--7--7-7--7-7-7-7--|
G|--7--7---------7--7-7-----------|--7--7---------7--7-7-----------|
D|--7--7---------7--7-7-----------|--7--7---------7--7-7-----------|
A|--5--5---------5--5-5-----------|--5--5---------5--5-5-----------|
E|--------------------------------|--------------------------------|

Back to Riff 1
then Riff 2 again
Riff 1 again
Riff 2 again

Riff 3=

e|-----------------| Repeat as necessary                 |-----------------|  Repeat as  necessary
B|-----------------|                                     |-----------------|
G|-9-9-9-9-9-9-9-9-|                                     |-7-7-7-7-7-7-7-7-|
D|-9-9-9-9-9-9-9-9-|                                     |-7-7-7-7-7-7-7-7-|
A|-7-7-7-7-7-7-7-7-|                                     |-5-5-5-5-5-5-5-5-|
E|-----------------|                                     |-----------------|

Back to Riff 1
Then riff 2
Riff 1 again
Riff 2 Once more

Now Riff 3 again

Riff 4

e|-9-9-9-9-7-7-7-7-----------------|
B|-9-9-9-9-7-7-7-7-9-9-9-9-7-7-7-7-|
G|-9-9-9-9-7-7-7-7-9-9-9-9-7-7-7-7-|   4 times then end on the first chord of this riff 
D|-7-7-7-7-5-5-5-5-9-9-9-9-7-7-7-7-|                         and let it ring
A|-----------------7-7-7-7-5-5-5-5-| then play it once more a few seconds after that
E|---------------------------------|

Now play Riff 3 but slow it down and put some funky strumming into
Now do Riff 3 again
Now do the Riff 4 pattern 7 times and then do this Riff 4 type riff:

e|-9-9-9-9-7-7-7-7---------------------------------| Let ring!!!
B|-9-9-9-9-7-7-7-7-9-9-9-9-9-9-9-9-9-9-9-9-9-9-9-7-|
G|-9-9-9-9-7-7-7-7-9-9-9-9-9-9-9-9-9-9-9-9-9-9-9-7-|
D|-7-7-7-7-5-5-5-5-9-9-9-9-9-9-9-9-9-9-9-9-9-9-9-7-|
A|-----------------7-7-7-7-7-7-7-7-7-7-7-7-7-7-7-5-|
E|-------------------------------------------------|

I'll rewrite the order right here to make it less confusing
Riff 1
Riff 2
Riff 1
Riff 2
Riff 1
Riff 2
Riff 3
Riff 1
Riff 2
Riff 1
Riff 2
Riff 3
Riff 4 (4 times)
Riff 3
Riff 3
Riff 4(7 times)
Riff 4(modified version 1 time)
I love the The Whigs and this is a great song for fairly new players to some 
intermediate players. Happy Playing. 

| /  slide up
| \  slide down
| h  hammer-on
| p  pull-off
| ~  vibrato
| +  harmonic
| x  Mute note
===============================================================================
Tap to rate this tab
 
# A B C D E F G H I J K L M N O P Q R S T U V W X Y Z