Song name
# A B C D E F G H I J K L M N O P Q R S T U V W X Y Z

The Whigs - Like A Vibration tab

Help us improve GuitareTab! Take a short survey!
-------------------------------------------------------------------------------
			  Like a Vibration-The Whigs
-------------------------------------------------------------------------------
Tabbed by:Zach Calhoun
Email:zachcalhoun@westminster.net

This is a really easy song. I think it is almost 100% perfect. Enjoy.

Tuning:Standard

Intro/Verse

e|-------------------|-----------------|-----------------|------------------|
B|-O-----------------|-----------------|-----------------|-----------------O|
G|-------------------|-----------------|-6-6-6-6-6-6-6-6-|-6-6-6-6-6-6-6-6--|
D|---6-6-6-6-6-6-6-6-|-6-6-6-6-6-6-6-6-|-6-6-6-6-6-6-6-6-|-6-6-6-6-6-6-6-6--|
A|-O-6-6-6-6-6-6-6-6-|-6-6-6-6-6-6-6-6-|-6-6-6-6-6-6-6-6-|-6-6-6-6-6-6-6-6-O|
E|---4-4-4-4-4-4-4-4-|-4-4-4-4-4-4-4-4-|-4-4-4-4-4-4-4-4-|-4-4-4-4-4-4-4-4--|

e|--0-0-0-0-0-0-0-0-|-0-0-0-0-0-0-0-0--| 
B|O-2-2-2-2-2-2-2-2-|-0-0-0-0-0-0-0-0-O|
G|--2-2-2-2-2-2-2-2-|-1-1-1-1-1-1-1-1--|
D|--2-2-2-2-2-2-2-2-|-2-2-2-2-2-2-2-2--|
A|O-0-0-0-0-0-0-0-0-|-2-2-2-2-2-2-2-2-O|
E|------------------|-0-0-0-0-0-0-0-0--|

The Third Time you play this after the verse:

e|-2-2-2-2-2-2-2-2-|
B|-2-2-2-2-2-2-2-2-|
G|-4-4-4-4-4-4-4-4-|
D|-4-4-4-4-4-4-4-4-|        X 4
A|-2-2-2-2-2-2-2-2-|
E|-----------------|

Chorus

e|--2-2-2-2-2-2-2-2-|-2-2-2-2-2-2-2-2-|-0-0-0-0-0-0-0-0-|-0-0-0-0-0-0-0-0--|
B|O-2-2-2-2-2-2-2-2-|-2-2-2-2-2-2-2-2-|-0-0-0-0-0-0-0-0-|-2-2-2-2-2-2-2-2-O|
G|--4-4-4-4-4-4-4-4-|-4-4-4-4-4-4-4-4-|-1-1-1-1-1-1-1-1-|-2-2-2-2-2-2-2-2--|
D|--4-4-4-4-4-4-4-4-|-4-4-4-4-4-4-4-4-|-2-2-2-2-2-2-2-2-|-2-2-2-2-2-2-2-2--|
A|O-2-2-2-2-2-2-2-2-|-2-2-2-2-2-2-2-2-|-2-2-2-2-2-2-2-2-|-0-0-0-0-0-0-0-0-O|
E|------------------|-----------------|-0-0-0-0-0-0-0-0-|------------------|


e|-0-0-0-0-0-0-0-0-|-0-0-0-0-0-0-0-0-|---0-0-0-0-0-0-0-0-|-0-0-0-0-0-0-0-0--|
B|-0-0-0-0-0-0-0-0-|-0-0-0-0-0-0-0-0-|-O-0-0-0-0-0-0-0-0-|-2-2-2-2-2-2-2-2-O|
G|-0-0-0-0-0-0-0-0-|-0-0-0-0-0-0-0-0-|---1-1-1-1-1-1-1-1-|-2-2-2-2-2-2-2-2--|
D|-2-2-2-2-2-2-2-2-|-2-2-2-2-2-2-2-2-|---2-2-2-2-2-2-2-2-|-2-2-2-2-2-2-2-2--|
A|-2-2-2-2-2-2-2-2-|-2-2-2-2-2-2-2-2-|-O-2-2-2-2-2-2-2-2-|-0-0-0-0-0-0-0-0-O|
E|-----------------|-----------------|---0-0-0-0-0-0-0-0-|------------------|

e|-0--0-0-|
B|-2--2-2-|
G|-2--2-2-|
D|-2--2-2-|
A|-0--0-0-|
E|--------|

Order

Verse x4
Chorus
Verse x1
Chorus


| /  slide up
| \  slide down
| h  hammer-on
| p  pull-off
| ~  vibrato
| +  harmonic
| x  Mute note
===============================================================================
Related for Like A Vibration tab