Song name
# A B C D E F G H I J K L M N O P Q R S T U V W X Y Z

The Whigs - Kill Me Carolyne tab

----------------------------------------------------------------------------
			   Kill Me Carolyne - The Whigs
----------------------------------------------------------------------------
Tabbed by: adslam3

NOTES: I'll try my best to show strumming BUT it won't be exact.

In the chorus, you'll see chords written about the tab, this is for playing
the song on an acoustic guitar (or classical like in the youtube video of
Parker sitting in a van and playing it).

The solo doesn't seem perfect to me but the rest of the song is dead on.

Tuning: Standard
INTRO
e|--------------------------------------------------------------------------|
B|--------------------------------------------------------------------------|
G|--------------------------------------------------------------------------|
D|-0~---2-0~--2-0~--2-2/4~--------------------------------------------------|
A|---0~-----0~----0~--------------------------------------------------------|
E|--------------------------------------------------------------------------|

VERSES
You may want to hit the open A only during the hammer-ons..your choice.
e|--------------------------------------------------------------------------|
B|--------------------------------------------------------------------------|
G|--6h7-7-7-7-7--6h7-7-7-7-7--6h7-7-7-7-7-9-9-9-9-7-7-7-7-------------------|
D|--7-7-7-7-7-7--7-7-7-7-7-7--7-7-7-7-7-7-7-7-7-7-7-7-7-7-------------------|
A|--0-0-0-0-0-0--0-0-0-0-0-0--0-0-0-0-0-0-0-0-0-0-0-0-0-0-------------------|
E|--------------------------------------------------------------------------|

CHORUS
   D                                   Bm
e|-----------------------------------|--------------------------------------|
B|-----------------------------------|--------------------------------------|
G|-11-11-11-11-11-11-14-14-----------|-7-7-7-7-7-7-7-7-11-11-11-11----------|
D|-12-12-12-12-12-12-12-12--play-----|-9-9-9-9-9-9-9-9-9--9--9--9-----------|
A|-12-12-12-12-12-12-12-12---4 times-|-9-9-9-9-9-9-9-9-9--9--9--9-----------|
E|-----------------------------------|--------------------------------------|
                                   E
e|--------------------------------------------------------------------------|
B|--------------------------------------------------------------------------|
G|-9-9-9-9-7-7-7-7-7-7-7-7-7-7-7-7-13-13-13-13------------------------------|
D|-9-9-9-9-9-9-9-9-9-9-9-9-9-9-9-9-14-14-14-14------------------------------|
A|-9-9-9-9-9-9-9-9-9-9-9-9-9-9-9-9-14-14-14-14------------------------------|
E|--------------------------------------------------------------------------|

SOLO (The solo is the only thing I'm not 100% on but it's really close)
Solo part 1 - this is played TWICE
e|--------------------------------------------------------------------------|
B|--------------------------------------------------------------------------|
G|-14h16-16-16-16-16-16-14h16-16-16-16-16-16--------------------------------|
D|-14-14-14-14-14-14-14-14-14-14-14-14-14-14--------------------------------|
A|--------------------------------------------------------------------------|
E|--------------------------------------------------------------------------|
                        1st time ends this way  2nd time ends this way
e|---------------------|-----------------------|----------------------------|
B|---------------------|-----------------------|----------------------------|
G|-16p14-14-14-14-14-14|16p14-14-14-14-14-14---|16-16-16-16-16-16-16-16-----|
D|-14-14-14-14-14-14-14|14-14-14-14-14-14-14---|16-16-16-16-16-16-16-16-----|
A|---------------------|-----------------------|----------------------------|
E|---------------------|-----------------------|----------------------------|

Solo part 2
e|--------------------------------------------------------------------------|
B|-----15--15--15--15--17--17--17--17--15--15--15--15--15--15--15--15-------|
G|---16--16--16--16--16--16--16--16--16--16--16--16--14--14--14--14---------|
D|--------------------------------------------------------------------------|
A|--------------------------------------------------------------------------|
E|--------------------------------------------------------------------------|

e|--------------------------------------------------------------------------|
B|---15--15--15--15--15--15--15--15-10-10-10-10-10-10-10-10-10-10-10-10-----|
G|-12--12--12--12--12--12--12--12---11-11-11-11-11-11-11-11-11-11-11-11-----|
D|--------------------------------------------------------------------------|
A|--------------------------------------------------------------------------|
E|--------------------------------------------------------------------------|

e|--------------------------------------------------------------------------|
B|--------------------------------------------------------------------------|
G|--10-10-10-10-10~~--10\---------------------------------------------------|
D|--11-11-11-11-11~~--11\---------------------------------------------------|
A|--------------------------------------------------------------------------|
E|--------------------------------------------------------------------------|
NOTES ON SOLO: I know this isn't exact, but it is close.  Parker plays this
in a different place on the neck, but these seem to be the same notes.

Any questions, comments, corrections, help? Let me know and I'll fix it.
Thanks and enjoy.

************************************

| /   slide up
| \   slide down
| h   hammer-on
| p   pull-off
| ~   vibrato
| +   harmonic
| x   Mute note
| b   Bend
| pb  Pre-bend
| br  Bend release
| pbr Pre-bend release
| brb Bend release bend

************************************
Tap to rate this tab
 
# A B C D E F G H I J K L M N O P Q R S T U V W X Y Z