Song name
# A B C D E F G H I J K L M N O P Q R S T U V W X Y Z

The White Buffalo - Sweet Hereafter tab

-------------------------------------------------------------------------------
                             SWEET HEREAFTER - The White Buffalo
-------------------------------------------------------------------------------
Keith
soul_edge246@hotmail.com

Standard
No Capo

First ever attempt at a tab, hope you guys enjoy, almost 100% sure this is how The 
White Buffalo plays it.

The structure is fairly repetitive;

Intro
Verse  x2
Chorus
Verse
Chorus x2
Outro

Intro:

e|---------------------------------------------------------------------------|
B|---------------------------------------------------------------------------|
G|---------------------------------------------------------------------------|
D|---------------------------------------------------------------------------|
A|---0h3---3---3---3---0h3---3---3---3---0h3---3---3---3---0h3---3---3---3---|
E|-0h1---1---1---0---0h1---1---1---0---0h1---1---1---0---0h1---1---1---0-----|

Verse:

e|---------------------------------------------------------------------------|
B|---------------------------------------------------------------------------|
G|---------------------------------------------------------------------------|
D|-----------------------0h3---3-----------------------5---5---5---5---3---3-|
A|---0h3---3---3---3---0h1---1-----0h3---3---3---0---3---3---3---3---1---1---|
E|-0h1---1---1---0---------------0h1---1---1---0-----------------------------|

e|---------------------------------------------------------------------------|
B|---------------------------------------------------------------------------|
G|---------------------------------------------------------------------------|
D|---------------------------------------------------------------------------|
A|---0h3---3---3---3---0h3---3---3---3---------------------------------------|
E|-0h1---1---1---0---0h1---1---1---0-----------------------------------------|


e|---------------------------------------------------------------------------|
B|---------------------------------------------------------------------------|
G|---------------------------------------------------------------------------|
D|-----------------------0h3---3-----------------------5---5---5---5---3---3-|
A|---0h3---3---3---3---0h1---1-----0h3---3---3---0---3---3---3---3---1---1---|
E|-0h1---1---1---0---------------0h1---1---1---0-----------------------------|


e|---------------------------------------------------------------------------|
B|---------------------------------------------------------------------------|
G|---------------------------------------------------------------------------|
D|-----------------------5---5---5---5---3---3---3---3-----------------------|
A|---0h3---3---3---0---3---3---3---3---1---1---1---1-------------------------|
E|-0h1---1---1---0-----------------------------------------------------------|

e|---------------------------------------------------------------------------|
B|---------------------------------------------------------------------------|
G|---------------------------------------------------------------------------|
D|---------------------------------------------------------------------------|
A|---0h3---3---3---3---0h3---3---3---3---------------------------------------|
E|-0h1---1---1---0---0h1---1---1---0-----------------------------------------|

Chorus:

e|---------------------------------------------------------------------------|
B|---------------------------------------------------------------------------|
G|---------------------------------------------------------------------------|
D|---7---7---7---7---5---5---5---5---3---3---3---3---3---3---0h3---3-----------|
A|-5---5---5---5---3---3---3---3---1---0---1---0---1---0---0h1---0-------------|
E|---------------------------------------------------------------------------|

e|---------------------------------------------------------------------------|
B|---------------------------------------------------------------------------|
G|---------------------------------------------------------------------------|
D|---------------------------------------------------------------------------|
A|---0h3---3---3---3---0h3---3---3---3---------------------------------------|
E|-0h1---1---1---0---0h1---1---1---0-----------------------------------------|

Outro:

e|---------------------------------------------------------------------------|
B|---------------------------------------------------------------------------|
G|---------------------------------------------------------------------------|
D|---------------------------------------------------------------------------|
A|---0h3---3---3---3---0h3---3---3---3---0h3---3---3---3---0h3---3---3---3---|
E|-0h1---1---1---0---0h1---1---1---0---0h1---1---1---0---0h1---1---1---0---1-|

The album outro is a fade out, but for live performance it sounds much nicer to 
let it ring out on the 1 on E.

************************************

| /   slide up
| \   slide down
| h   hammer-on
| p   pull-off
| ~   vibrato
| +   harmonic
| x   Mute note
| b   Bend
| pb  Pre-bend
| br  Bend release
| pbr Pre-bend release
| brb Bend release bend

************************************
Tap to rate this tab
 
# A B C D E F G H I J K L M N O P Q R S T U V W X Y Z