Song name
# A B C D E F G H I J K L M N O P Q R S T U V W X Y Z

The White Buffalo - 10 Til 2 tab

Tabbed by: pillbory

My 2nd Tab, first was an easier chord tab, this is my first step into proper tab. 
Not 100% sure of exact notes, but this certainly works ok. 
Both are of White buffalo tracks, seriously check this guy out, he's a dude! 
Obviously listen to this track first before playing to get the hang of it. Cracking lyrics. 


Tuning: STANDARD

3/4 TIMING (WALTZ)

Last two double stops of each verse I sometimes miss out, letting the last base note ring out for that beat.

Throughout the song you should be using the C chord fingering (transitioning into Am) apart from last D



VERSES =
        

e|---------------------------------------------------------------------------------|
B|---------5--5----------------5--5----------------3--3----------------3--3--------|
G|---------6--6----------------6--6----------------4--4----------------4--4--------|  
D|---7-------------------6-------------------5-------------------4-----------------|
A|---------------------------------------------------------------------------------|
E|---------------------------------------------------------------------------------|

Well I'm  hopin'       its    true,        that   we will    screw in the mornin'



CHORUS =

e|-------------------------------------------|
B|--10--------10--------12--------10---------|
G|------11--------11--------11--------11-----|
D|-------12--------12--------12--------12----|
A|-------------------------------------------|
E|-------------------------------------------|
......................Well  I'm   lonely   now

e|------------------------------------------|
B|--5---------5---------6---------5---------|
G|------6---------6----------6--------6-----|
D|-------7---------7----------7--------7----|
A|------------------------------------------|
E|------------------------------------------|
                ...... But   I    know   somehow

e|------------------------------------------|
B|--3---------3---------4---------3---------|
G|------5---------5----------5--------5-----|
D|-------6---------6----------6--------6----|
A|------------------------------------------|
E|------------------------------------------|

                  ...... I'll walk your streets again 

e|-----------2-------------------2----------|
B|----------------3-------------------3-----|
G|-----2-----------2-------2-----------2----|
D|--0-----0-------------0-----0-------------|
A|------------------------------------------|
E|------------------------------------------|


[Verse]

Well I'm hopin' its true, that we will screw in the mornin'
Well I'm tellin you, I think I'm in love, thats a warnin'
Lay fifty down, for one more round's all I'm holdin
Well its not enough, night time is up, I must be goin'


[Chorus]

Well I'm lonely now
But I know somehow
I'll walk your streets again
And I want you now
But I know anyhow
I'll lose ya to your streets again


[Verse]

Well its 10 'til 2, Im searchin for you, thats the story
Lurkin about, street lamps are out, makes me worry



[Chorus]

Your a toungue tied whore
With my pants on the floor
She walks a heavy out
Well I'm lonely now
But I know anyhow
Cruise your streets again


[Verse]
Well I'm hopin' its true, that we will screw in the mornin'
Tap to rate this tab
# A B C D E F G H I J K L M N O P Q R S T U V W X Y Z